Oops, an error
Loading. Please wait.

Blood In The Cut intro tab

version 1
version 1

Intro

  • First time writing a tab, and played by ear so it ... Show more

Whole song

by K.Flay
1,870 views 9 this week
3 commentsread comments
1 2 3 4 5
x 5
add to favorites
×
Save as Personal and add changes to this tab that will be seen only by you. Learn more ›
×
You can save this tab as Personal to edit and correct it or add notes. All changes will be seen only by you. Learn more »
launch autoscroll
font size
0
reset
how to read this tab
guitar tuner
edit
Autoscroll
slow
fast
+/-
esc
set tempo
stop
Author
Difficulty
About this tab version
First time writing a tab, and played by ear so it may not be perfect. Repeats through entire song. Was this info helpful? Yes No
[Intro]

e|--------------------------------------------|
B|--------------------------------------------|
G|--------------------------------------------|
D|------2-----2-----2-------------------------| 
A|----------------------2-1-0-----------------| x2
E|--0-0---0-0---0-0---0-----------------------|


            
            
Suggest correction
Creating personal tab
Creating personal tab
You can edit any tab online and save it as your Personal.

You can edit, replace or remove any tab part or add personal notes – all changes will be seen only by you.

Personal tabs can be accessed anytime from any device, even offline.
Learn more »
comments
print report bad tab
3 comments total.
0 reply
isaiahmartin1213 10 Apr 19, 2017 10:17 PM

e-------------------------------------------------
B-------------------------------------------------
G-------------------------------------------------
D------------2---------2--------2--------------
A---------------------------------------2-0-----
E-------0-0-----0-0-----0-0-----0-------3---

0 reply
isaiahmartin1213 10 Apr 19, 2017 10:18 PM

👍

0 reply
isaiahmartin1213 10 Apr 19, 2017 10:19 PM

Disregard

guest
You may want to rate the tab now too:
select rating
Wanna post a correction for this tab? Suggest correction