Oops, an error
Loading. Please wait.

Stretching Out Tab

1,304 views 3 this week
no commentswrite comment
1 2 3 4 5
please rate
add to favorites
launch autoscroll
font size
0
reset
how to read this tab
guitar tuner
Autoscroll
slow
fast
+/-
esc
set tempo
stop
Help us to improve Ultimate-Guitar.com Take our survey!
×
Author
Difficulty
advanced
You Can Find The Song Here: http://www.youtube.com/watch?v=3d-kvZXLhqQ

E||-5-0-0-0-0-0-8-0-0-12-0-0-10-13-0-|8-12-0-7-10-0-5-8-0---------------|
B||----------------------------------|----------------------------------|
G||----------------------------------|----------------------------------|
D||----------------------------------|----------------------------------|
A||----------------------------------|----------------------------------|
E||----------------------------------|----------------------------------|

E||-4-0-0-0-0-0-7-0-0-10-0-0-8-12-0-7|-10-0-5-8-0-4-7-0-----------------|
B||----------------------------------|----------------------------------|
G||----------------------------------|----------------------------------|
D||----------------------------------|----------------------------------|
A||----------------------------------|----------------------------------|
E||----------------------------------|----------------------------------|

E||-5-0-0-0-0-0-8-0-0-12-0-0-10-13-0-|8-12-0-7-10-0-5-8-0---------------|
B||----------------------------------|----------------------------------|
G||----------------------------------|----------------------------------|
D||----------------------------------|----------------------------------|
A||----------------------------------|----------------------------------|
E||----------------------------------|----------------------------------|

E||-4-0-0-0-0-0-7-0-0-10-0-0-8-12-0-5|-8-0-5----------------------------|
B||----------------------------------|----------------------------------|
G||----------------------------------|----------------------------------|
D||----------------------------------|----------------------------------|
A||----------------------------------|----------------------------------|
E||----------------------------------|----------------------------------|

TAP THIS

E||----------------------------------|----------------------------------|
B||----------------------------------|----------------------------------|
G||---14-6-9-14-6-9-14-6-9-14-6-9----|-14-7-10-14-7-10-14-7-10-14-7-10--|
D||----------------------------------|----------------------------------|
A||----------------------------------|----------------------------------|
E||----------------------------------|----------------------------------|

E||----------------------------------|----------------------------------|
B||----------------------------------|----------------------------------|
G||---12-4-7-12-4-7-12-4-7-12-4-7----|-12-5-9-12-5-9-12-5-9-12-5-9------|
D||----------------------------------|----------------------------------|
A||----------------------------------|----------------------------------|
E||----------------------------------|----------------------------------|

E||----------------------------------|----------------------------------|
B||----------------------------------|----------------------------------|
G||---10-2-5-10-2-5-10-2-5-10-2-5----|-10-4-7-10-4-7-10-4-7-10-4-7------|
D||----------------------------------|----------------------------------|
A||----------------------------------|----------------------------------|
E||----------------------------------|----------------------------------|

E||----------------------------------|----------------------------------|
B||----------------------------------|----------------------------------|
G||---13-7-10-13-7-10-13-7-10-13-7-10|-16-7-10-16-7-10-13---------------|
D||----------------------------------|----------------------------------|
A||----------------------------------|----------------------------------|
E||----------------------------------|----------------------------------|
STOP TAPING NOW :D
Time For Sweeping

E||---12-17-12------10-13-10------12-|16-12------12-17-12---------------|
B||--13------13----10------10----12--|----12----13------13-12-----------|
G||-14--------14--10--------10--13---|-----13--14-----------------------|
D||----------------------------------|----------------------------------|
A||----------------------------------|----------------------------------|
E||----------------------------------|----------------------------------|

E||---12-17-12------10-13-10------12-|16-12------12-17-12---------------|
B||--13------13----10------10----12--|----12----13------13--------------|
G||-14--------14--10--------10--13---|-----13--14--------14-------------|
D||----------------------------------|----------------------------------|
A||----------------------------------|----------------------------------|
E||----------------------------------|----------------------------------|

E||---12-15-12---12-15-12---13-17-13-|--13-17-13---10-13-10---10-13-10--|
B||--14------14-14------14-15------15|-15------15-12------12-12------12-|
G||-14--------14---------14----------|14--------12---------12---------12|
D||----------------------------------|----------------------------------|
A||----------------------------------|----------------------------------|
E||----------------------------------|----------------------------------|

E||-12-15-12---12-15-12---8-12-8---8-|12-8---10-13-10---10-13-10----10--|
B||13------13-13------13-10----10-10-|---10-12------12-12-------12-12---|
G||---------12---------10-------10---|----10---------10-----------13----|
D||----------------------------------|----------------------------------|
A||----------------------------------|----------------------------------|
E||----------------------------------|----------------------------------|

E||13-10---10-13-10---13-16-13-------|----------------------------------|
B||----12-12------12-15------15------|----------------------------------|
G||-----13---------16---------10-----|----------------------------------|
D||----------------------------------|----------------------------------|
A||----------------------------------|----------------------------------|
E||----------------------------------|----------------------------------|

E||-5-0-0-0-0-0-8-0-0-12-0-0-10-13-0-|8-12-0-7-10-0-5-8-0---------------|
B||----------------------------------|----------------------------------|
G||----------------------------------|----------------------------------|
D||----------------------------------|----------------------------------|
A||----------------------------------|----------------------------------|
E||----------------------------------|----------------------------------|

E||-4-0-0-0-0-0-7-0-0-10-0-0-8-12-0-7|-10-0-5-8-0-4-7-0-----------------|
B||----------------------------------|----------------------------------|
G||----------------------------------|----------------------------------|
D||----------------------------------|----------------------------------|
A||----------------------------------|----------------------------------|
E||----------------------------------|----------------------------------|

E||-5-0-0-0-0-0-8-0-0-12-0-0-10-13-0-|8-12-0-7-10-0-5-8-0---------------|
B||----------------------------------|----------------------------------|
G||----------------------------------|----------------------------------|
D||----------------------------------|----------------------------------|
A||----------------------------------|----------------------------------|
E||----------------------------------|----------------------------------|

E||-4-0-0-0-0-0-7-0-0-10-0-0-8-12-0-5|-8-0-5----------------------------|
B||----------------------------------|----------------------------------|
G||----------------------------------|----------------------------------|
D||----------------------------------|----------------------------------|
A||----------------------------------|----------------------------------|
E||----------------------------------|----------------------------------|
Suggest correction
What's this?
You can suggest a correction to this tab. Community and Mods will review your correction and vote to approve or reject it.
comments
We did not receive enough feedback on this tab! Please rate:
print report bad tab
1 2 3 4 5
guest
You may want to rate the tab now too:
select rating
Please do not post tabs as comments. Select "correction" instead!