Oops, an error
Loading. Please wait.

Enting Tab

107 views 1 this week
no commentswrite comment
1 2 3 4 5
3 more votes to show rating
add to favorites
launch autoscroll
font size
0
reset
how to read this tab
guitar tuner
Autoscroll
slow
fast
+/-
esc
set tempo
stop
Help us to improve Ultimate-Guitar.com Take our survey!
×
Author
Band/Artist: Kabobo
Song: Enting (acoustic version)


Intro: C-D-G--
       C-D  
Gtr. 2(Play this during intro and refrain)     
e|------------------------------------------------------------|
B|------------------------------------------------------------|   
G|--5-7-9-7-9-11-11h12-11-14-12-11-11h12-11h12-11h12-11h12-14-|
D|------------------------------------------------------------|   
A|------------------------------------------------------------|  
E|------------------------------------------------------------|  

e|------------------------------------------------------------|
B|------------------------------------------------------------|
G|--11h12-11-14-12-11h12-11h12-11h12-11h12-14--5-7-9-7-7-7-7--|
D|------------------------------------------------------------|
A|------------------------------------------------------------|
E|------------------------------------------------------------|


Verse:
Gtr. 2(Do this during verse)
e|------------------12-------------12----------------|
B|----8~------8~-------12-------------12-------------|
G|--7-------7-------------11~------------11~---------|
D|---------------------------------------------------|
A|---------------------------------------------------|
E|---------------------------------------------------|

G                  C
 Timpla’g cape nahurot lima ka paketi
Am             G
 Mata ga hapdos gi bulikat gipugos
G                    C
 Humol tiil sa planggana memorize mo gana
Am            G
 Seryosong tuon aron di matang-gong

Refrain:
C        D             G
 Ug ngano maning hitaboa
C       D
 Giyano lang naggama sya’g kodigo

Chorus:
G               C         D
 Hala maam si enting nag cheating nasad
G               C         D
 Hala maam si enting nag cheating
G              C          D
 Hala maam si enting nag cheating nasad
C         D             C       D
 Diko palabot diko mosugot

Verse:
G                   C                   Am
 Yopuch ecoch ang gitudlo ug gitambag ni coach
              G
 Kay naay cafiene aron duka magpadaplin
G                         C                     Am
 Hala brown out dagkot kandila kaahat kag pa ngawt
              G
 Paningkamutan aron makuhang flat one

(Repeat refrain)
(Repeat chorus)

Adlib:
Gtr. 2
e|---------------------------------------------------|
B|---------------------------------------------------|
G|--12-11-9----9-------------12-11-9----9-9-11-12----|
D|----------12---9-10-9-7-9----------12--------------|
A|---------------------------------------------------|
E|---------------------------------------------------|

e|---------------------------------------------------|
B|---------------------------------------------------|
G|--12-11-9----9-------------------------------------|
D|----------12---9-10-9-7-9--7-9-10-9-7--7-7-9-7-5---|
A|---------------------------------------------------|
E|---------------------------------------------------|

e|---------------------------------------------------|
B|------8------8-8-----------------------------------|
G|--7h9----7h9---------------------------------------|
D|---------------------------------------------------|
A|---------------------------------------------------|
E|---------------------------------------------------|

(Repeat refrain)
(Repeat chorus)

Suggest correction
Give kudos to tab author, rate the tab!
1 2 3 4 5
comments
print report bad tab
guest
You may want to rate the tab now too:
select rating
Wanna post a correction for this tab? Suggest correction