Oops, an error
Loading. Please wait.

Lunarcito tab

by Kachas
31 views 1 this week
no commentswrite comment
1 2 3 4 5
3 more votes to show rating
add to favorites
×
Save as Personal and add changes to this tab that will be seen only by you. Learn more ›
×
You can save this tab as Personal to edit and correct it or add notes. All changes will be seen only by you. Learn more »
launch autoscroll
font size
0
reset
how to read this tab
guitar tuner
edit
Autoscroll
slow
fast
+/-
esc
set tempo
stop
Lunarcito - Kachas
Ritmo: Taquirari
Colocar capo traste en el 2° traste

Intr.:
         Em7           C9                Am7               D
E ------0--0---|-----0--3/0--0---|------0--5/0--0---|----2.--3--2---|
B -----3-3--3--|----3-3----3--3--|---1-0-0----0--1--|---3--3--3--3--|
G ----0---0--0-|---0---0----0--0-|--0-----0----0--2-|--2----2--2--2-|
D ---2---------|--2--------------|------------------|-0-------------|
A --2----------|-3---------------|-5----------------|---------------|
E -0-----------|-----------------|------------------|---------------|

         Em7           C9                Am7               D
E ------0--0---|-----0--3/0--0---|------0--5/0--0---|----2.--3--2---|
B -----3-3--3--|----3-3----3--3--|---1-0-0----0--1--|---3--3--3--3--|
G ----0---0--0-|---0---0----0--0-|--0-----0----0--2-|--2----2--2--2-|
D ---2---------|--2--------------|------------------|-0-------------|
A --2----------|-3---------------|-5----------------|---------------|
E -0-----------|-----------------|------------------|---------------|

                 Em7
E -----0--0--0-------0-|
B ----3-3--3--3------3-|
G ---0---0--0--0-----0-|
D --2----------------2-|
A -2-----------------2-|
E -------------------0-|

Em        B7      Em  B7               Em
Me gusta tu lunarcito me lo quisiera robar
Em         B7        Em    B7                  Em-E7
Es bien chiquito y negrito conmigo lo he de llevar
Am                              D              G
(Ya no me mires con fascinación que me haces soñar
  F#            B7 Mtr.         B7          Em-E7
Tu lunarcito está en mi corazón y me hace vivir) bis
Am               D           G
(Ya no puedo mas de tanto llorar
F#       B7 Mtr. B7        Em-E7
Pienso si me voy tu me olvidaras) bis


E: -8-8-7-5-----7-7-5--------5-5------------------------8---12-12-10-8--7-5---5-|
B: --------8-7.-------8-7-5.----8-7-5-----7--5-5-7-8-7-8-------------------8-7--|
G: ----------------------------------8-5-8-----8--------------------------------|


E: -10-10-8-7-5------------8-7-5------------------------12-12-10-8--7-5---5-|
B: --------------8-7-5-8---------8-7-5-7--8/10-10-10-9-----------------8-7--|
G: -----------------------------------8---8/10-10-10-9----------------------|


E: -10-10-8-7-5---------8-7-5------------|
B: -------------8-7-5-8-------8-7-5-7-5.-|
G: --------------------------------8-----|

esta parte se toca junto con el punteo de arriba
(Am D G C B7 Em-E7) bis
Am D G C B7 Em


(Em B7 Em B7 Em) bis -E7
Am D G F# B7 Mtr. B7 Em-E7
Am D G F# B7 Mtr. B7 Em

Em        B7      Em  B7               Em
Me gusta tu lunarcito me lo quisiera robar
Em         B7        Em    B7                  Em-E7
Es bien chiquito y negrito conmigo lo he de llevar
Am                              D              G
(Ya no me mires con fascinación que me haces soñar
  F#            B7 Mtr.         B7          Em-E7
Tu lunarcito está en mi corazón y me hace vivir) bis
Am               D           G
(Ya no puedo mas de tanto llorar
F#       B7 Mtr. B7        Em-E7
Pienso si me voy tu me olvidaras) bis


espero que les guste pronto voy a poner
nuevas transcripciones hasta pronto bye
Suggest correction
Creating personal tab
Creating personal tab
You can edit any tab online and save it as your Personal.

You can edit, replace or remove any tab part or add personal notes – all changes will be seen only by you.

Personal tabs can be accessed anytime from any device, even offline.
Learn more »
Give kudos to tab author, rate the tab!
1 2 3 4 5
comments
print report bad tab
guest
Wanna post a correction for this tab? Suggest correction