Oops, an error
Loading. Please wait.

Manhattan Loves You Tab

208 views 1 this week
no commentswrite comment
1 2 3 4 5
please rate
add to favorites
launch autoscroll
font size
0
reset
how to read this tab
guitar tuner
Autoscroll
slow
fast
+/-
esc
set tempo
stop
Help us to improve Ultimate-Guitar.com Take our survey!
×
Author
Difficulty
advanced
Kaddisfly
Manhattan Loves You
Did You Know People Can Fly?
dropped d half a step down, w/ dist. and delay.
The h is harmonic, play directly above the numbered fret

------------h-h-----------h-h--------|
-p.m.......------p.m.....------------|
--------------5----------------------| repeat several times until
---------7-5-----------7-5-----------| verse "picks up." Then....
-8-8-8---------8-8-8------7----------|
-------------------------------------|


-----------------------------------------------------------------b----|
-p.m.....--------p.m......---------p.m.......--------p.m......-~------|
-----------5/7-9-----------5-----------------5/7-9----------5---------|
--------7----------------7----5/7---------7----------------7----------|
-8-8-8----------8-8-8------------8-8-8-----------8-8-8----------------|
----------------------------------------------------------------------|

double time the strumming for each note.
in other words, strum only once and play slow, or strum each note twice with a down and 
stroke...sorry for being confusing

----------------------------------------------------------------------------|
-------5-5-5---6/8-8-8-8----------101010------8-8-8-8-----------------------|
----5-5-5-5---3/5-5-5-5-----------x-x-x--------x-x-x-x----------------------|
-3-3-3-3-3-0-0-0-0-0-0-----810101010----5-7-7-7-7-6666-6666-6666------------|
-3-3-3-3-3-0-0-0-0-0-0-xx-8-8-8--8--8----5-5-5-5-5-6666-6666-6666-----------|
-3-3-3-3-3-0-0-0-0-0-0-xx-8-8-8--8--8-xx5-5-5-5-5-6666- 6666-6666-----------|

then...

-----------------------------------------------|
-----------------------------------------------|
------------9----------------9-9---------------|
------------x------------------10--------------|
------------8----------------8-8---------------|
-0-0-000-x-----0-0-000-------------------------|

2nd "verse" first chord

0
0
11
9
10
x

strum a bunch then....

-------------p------------5-2--------5-2---------|
----------------0-0-0-3-3-3-3-3-3-3-3------------|
----------------0-0-0-0-0-0-0-0-0-0-0------------|
--9-/-4--4----0-0-0-0-0-0-0-0-0-0-0--------------|this last part is questionable for sure
-10/-5--5--o-2-2-2-2------2-2-2------------------|but its close
-x----x-x---x--x-x-x-x------x-x-x----------------|
Suggest correction
Give kudos to tab author, rate the tab!
1 2 3 4 5
comments
print report bad tab
guest
You may want to rate the tab now too:
select rating
Wanna post a correction for this tab? Suggest correction