Oops, an error
Loading. Please wait.

Trejo tab

by Kadeho
33 views 1 this week
no commentswrite comment
1 2 3 4 5
3 more votes to show rating
add to favorites
×
Save as Personal and add changes to this tab that will be seen only by you. Learn more ›
×
You can save this tab as Personal to edit and correct it or add notes. All changes will be seen only by you. Learn more »
launch autoscroll
font size
0
reset
how to read this tab
guitar tuner
edit
Autoscroll
slow
fast
+/-
esc
set tempo
stop
Intro
Am    E X2

Guitarra 2*
  Am
|-------------------------------------------------|
|-5-----6-----6---------5------6-----6------------|
|-----5-----5----------------5-----5--------------|
|---7-----7----------------7-----7----------------|
|-------------------------------------------------|
|-------------------------------------------------|
  E
|-------------------------------------------------|
|-5-----5h6p5h6p5h6h5--------5------5h6p5h6p5h6h5-|
|-----5--------------------------5----------------|
|---7--------------------------7------------------|
|-------------------------------------------------|
|-------------------------------------------------|


Am
Respiro de nuevo ese dulce olor
E
Y el viento me dice que andas por ahí
Am
No quiero seguirte esperando aquí
E
SI LA oscuridad empezó A caer


      F          G                Am
Y el cielo, el cielo me manda estrellas
F               G           Fig. 1
 Estrellas que solo son para mí.

Fig 1
  Am
I-5--5-------------------|
I-5--5-------------------|
I-5--5-------------------|
I-7--7-------------------|
I-7--7-------------------|
I-5--5----7h8p7h8p7h8p7--|

Am
Estoy buscándote y puedo verte
E
Estoy mirándote retorcerte
Am
Estoy sacando fuerzas de adentro
E
Estoy muriéndome y viendo muerte
  F         G                Am
Y solo,no puedo entre tanta gente
F           G              Fig. 1
  Matarme sería disimular.


Dm     E                Am
Trejo, Trejo, la mula al Trejo
Dm           E             Am
Vendiendo sistema de inhalación
Dm    E                Am
Trejo Trejo la mula al Trejo
Dm        E                  Fig. 1
Vendiendo pastillas pa'el corazón.

Solo (muy largo para transcribirlo)

Am
La realidad no la ve la gente
E
No les importa y es la verdad
Am
La ingenuidad anda por ahí
E
Y la injusticia de par en par
  F        G               Am
A Trejo a Trejo le fue muy fuerte
F         G              Am
  Con un 38 se disparó.
Suggest correction
Creating personal tab
Creating personal tab
You can edit any tab online and save it as your Personal.

You can edit, replace or remove any tab part or add personal notes – all changes will be seen only by you.

Personal tabs can be accessed anytime from any device, even offline.
Learn more »
Give kudos to tab author, rate the tab!
1 2 3 4 5
comments
print report bad tab
guest
Wanna post a correction for this tab? Suggest correction