Oops, an error
Loading. Please wait.

Crucial tab

by Kaiben
46 views 1 this week
no commentswrite comment
1 2 3 4 5
3 more votes to show rating
add to favorites
×
Save as Personal and add changes to this tab that will be seen only by you. Learn more ›
×
You can save this tab as Personal to edit and correct it or add notes. All changes will be seen only by you. Learn more »
launch autoscroll
font size
0
reset
how to read this tab
guitar tuner
edit
Autoscroll
slow
fast
+/-
esc
set tempo
stop
Author
Difficulty
-------------------------------------------------------------------------------
                            Kaiben - Crucial
-------------------------------------------------------------------------------
Tabbed by: Stefan Premovic

Artist: https://soundcloud.com/kaiben
        https://www.facebook.com/Kaiben-163850940334742/
Song:   https://www.youtube.com/watch?v=6aSJ2qoA12I

Tuning: Standard


   0:00
e|-----------------------------------------------------------------|
B|-----------------------------------------------------------------|
G|-----------------------------------------------------------------|
D|-----------------------------------------------------------------|
A|-6-------------------------------5-----------------------5-------|
E|-----------------------------------------------------------------|
   0:05
e|-----------------------------------------------------------------|
B|-----------------------------------------------------------------|
G|-----------------------------------------------------------------|
D|-------------------------------------------------5b6-br5-5-------|
A|-6-----------------------6p5-5h6-6-----------5h6-----------------|
E|-----------------------------------------------------------------|
   0:10
e|-----------------------------------------------------------------|
B|-----------------------------------------------------------------|
G|-----------------------------------------------------------------|
D|-----------------------------------------------------------------|
A|-6-----------------------8---6---5-------------------------------|
E|-------------------------------------------------6---------------|
   0:15
e|-----------------------------------------------------------------|
B|-----------------------------------------------------------------|
G|-----------------------------------------------------------------|
D|-------------------------------------------------5b6-br5-5-------|
A|-6-----------------------6p5-5h6-6-----------5h6-----------------|
E|-----------------------------------------------------------------|
   0:20
e|-----------------------------------------------------------------|
B|-----------------------------------------------------------------|
G|-----------------------------------------------------------------|
D|-----------------------------------------------------------------|
A|-6-------------------------------5-----------------------5-------|
E|-----------------------------------------------------------------|
   0:24
e|-----------------------------------------------------------------|
B|-----------------------------------------------------------------|
G|-----------------------------------------------------------------|
D|-------------------------------------------------5b6-br5-5-------|
A|-6-----------------------6p5-5h6-6-----------5h6-----------------|
E|-----------------------------------------------------------------|
   0:29
e|-----------------------------------------------------------------|
B|-----------------------------------------------------------------|
G|-----------------------------------------------------------------|
D|-----------------------------------------------------------------|
A|-6-----------------------8---6---5-------------------------------|
E|-------------------------------------------------6---------------|
   0:34
e|-----------------------------------------------------------------|
B|-----------------------------------------------------------------|
G|-----------------------------------------------------------------|
D|-------------------------------------------------5b6-br5-5-------|
A|-6-----------------------6p5-5h6-6-----------5h6-----------------|
E|-----------------------------------------------------------------|

   0:43
e|-----------------------------------------------------------------|
B|-----------------------------------------------------------------|
G|-----------------------------------------------------------------|
D|-----------------------------------------------------------------|
A|-6-------------------------------5-----------------------5-------|
E|-----------------------------------------------------------------|
   0:48
e|-----------------------------------------------------------------|
B|-----------------------------------------------------------------|
G|-----------------------------------------------------------------|
D|-------------------------------------------------5b6-br5-5-------|
A|-6-----------------------6p5-5h6-6-----------5h6-----------------|
E|-----------------------------------------------------------------|
   0:53
e|-----------------------------------------------------------------|
B|-----------------------------------------------------------------|
G|-----------------------------------------------------------------|
D|-----------------------------------------------------------------|
A|-6-----------------------8---6---5-------------------------------|
E|-------------------------------------------------6---------------|
   0:58
e|-----------------------------------------------------------------|
B|-----------------------------------------------------------------|
G|-----------------------------------------------------------------|
D|-------------------------------------------------5b6-br5-5-------|
A|-6-----------------------6p5-5h6-6-----------5h6-----------------|
E|-----------------------------------------------------------------|

   1:03                                |-->    p.m.   <--|
e|-----------------------------------------------------------------|
B|-----------------------------------------------------------------|
G|-----------------------------------------------------------------|
D|-----------------------------------------------------------------|
A|-6---5h6-----5h6-----5h6-----5h6-5---5-5-5-5-5-5-5-5-5-5-6p5-5h6-|
E|-----------------------------------------------------------------|
   1:07
e|-----------------------------------------------------------------|
B|-----------------------------------------------------------------|
G|-----------------------------------------------------------------|
D|---------5-----6-5-----------------------5-----------------------|
A|-6---5-6---6-------6-5-x-5h6-5---6---5-6---6-5-6-5-6-8-5-x-6-----|
E|-------------------------------------------------------------6-6-|
   1:12                                |-->    p.m.   <--|
e|-----------------------------------------------------------------|
B|-----------------------------------------------------------------|
G|-----------------------------------------------------------------|
D|-----------------------------------------------------------------|
A|-6---5h6-----5h6-----5h6-----5h6-5---5-5-5-5-5-5-5-5-5-5-6p5-5h6-|
E|-----------------------------------------------------------------|
   1:17
e|-----------------------------------------------------------------|
B|-----------------------------------------------------------------|
G|-----------------------------------------------------------------|
D|---------5-----6-5-----------------------5-----------------------|
A|-6---5-6---6-------6-5-x-5h6-5---6---5-6---6-5-6-5-6-8-5-x-6-----|
E|-------------------------------------------------------------6-6-|

   1:22
e|-----------------------------------------------------------------|
B|-----------------------------------------------------------------|
G|-----------------------------------------------------------------|
D|-6p5---8p5---6p5---8p5---5h6p5---3---3-3-3h5p3-------------------|
A|-----------------------------------------------6---6-6p5-5---5-5-|
E|-----------------------------------------------------------------|
   1:27
e|-----------------------------------------------------------------------|
B|-----------------------------------------------------------------------|
G|-----------------------------------------------------------------------|
D|---------5-----8-------5-----------------5h6p5-8---10---10-10/13-13-13-|
A|-6---5-5---6-------6-8---6---5-5-6---5-5-------------------------------|
E|-----------------------------------------------------------------------|
   1:31
e|----------------------------------------------------------------------------------------|
B|----------------------------------------------------------------------------------------|
G|----------------------------------------------------------------------------------------|
D|-13---12h13-13---12-13---15---15-13---13-13-12-----12-12-13-12-13p12-10-12-8-10-6---6-6-|
A|----------------------------------------------------------------------------------------|
E|----------------------------------------------------------------------------------------|
   1:36
e|-----------------------------------------------------------------|
B|-----------------------------------------------------------------|
G|-----------------------------------------------------------------|
D|-5---5-5-6-5---5-------------------------5-6-5-8---6-5-----------|
A|-------------8---6---6-6-6p5-5-5-6---5-6---------------8-6-6-5-5-|
E|-----------------------------------------------------------------|

   1:41
e|-----------------------------------------------------------------|
B|-----------------------------------------------------------------|
G|-----------------------------------------------------------------|
D|-----------------------------------------------------------------|
A|-6-------------------------------5-----------------------5-------|
E|-----------------------------------------------------------------|
   1:46
e|-----------------------------------------------------------------|
B|-----------------------------------------------------------------|
G|-----------------------------------------------------------------|
D|-------------------------------------------------5b6-br5-5-------|
A|-6-----------------------6p5-5h6-6-----------5h6-----------------|
E|-----------------------------------------------------------------|
   1:51
e|-----------------------------------------------------------------|
B|-----------------------------------------------------------------|
G|-----------------------------------------------------------------|
D|-----------------------------------------------------------------|
A|-6-----------------------8---6---5-------------------------------|
E|-------------------------------------------------6---------------|
   1:56
e|-----------------------------------------------------------------|
B|-----------------------------------------------------------------|
G|-----------------------------------------------------------------|
D|-------------------------------------------------5b6-br5-5-------|
A|-6-----------------------6p5-5h6-6-----------5h6-----------------|
E|-----------------------------------------------------------------|

   2:00                                |-->    p.m.   <--|
e|-----------------------------------------------------------------|
B|-----------------------------------------------------------------|
G|-----------------------------------------------------------------|
D|-----------------------------------------------------------------|
A|-6---5h6-----5h6-----5h6-----5h6-5---5-5-5-5-5-5-5-5-5-5-6p5-5h6-|
E|-----------------------------------------------------------------|
   2:05
e|-----------------------------------------------------------------|
B|-----------------------------------------------------------------|
G|-----------------------------------------------------------------|
D|---------5-----6-5-----------------------5-----------------------|
A|-6---5-6---6-------6-5-x-5h6-5---6---5-6---6-5-6-5-6-8-5-x-6-----|
E|-------------------------------------------------------------6-6-|
   2:10                                |-->    p.m.   <--|
e|-----------------------------------------------------------------|
B|-----------------------------------------------------------------|
G|-----------------------------------------------------------------|
D|-----------------------------------------------------------------|
A|-6---5h6-----5h6-----5h6-----5h6-5---5-5-5-5-5-5-5-5-5-5-6p5-5h6-|
E|-----------------------------------------------------------------|
   2:15
e|-----------------------------------------------------------------|
B|-----------------------------------------------------------------|
G|-----------------------------------------------------------------|
D|---------5-----6-5-----------------------5-----------------------|
A|-6---5-6---6-------6-5-x-5h6-5---6---5-6---6-5-6-5-6-8-5-x-6-----|
E|-------------------------------------------------------------6-6-|

   2:19
e|-----------------------------------------------------------------|
B|-----------------------------------------------------------------|
G|-----------------------------------------------------------------|
D|-----------------------------------------------------------------|
A|-6-------------------------------5-----------------------5-------|
E|-----------------------------------------------------------------|
   2:24
e|-----------------------------------------------------------------|
B|-----------------------------------------------------------------|
G|-----------------------------------------------------------------|
D|-------------------------------------------------5b6-br5-5-------|
A|-6-----------------------6p5-5h6-6-----------5h6-----------------|
E|-----------------------------------------------------------------|
   2:29
e|-----------------------------------------------------------------|
B|-----------------------------------------------------------------|
G|-----------------------------------------------------------------|
D|-----------------------------------------------------------------|
A|-6-----------------------8---6---5-------------------------------|
E|-------------------------------------------------6---------------|
   2:34
e|-----------------------------------------------------------------|
B|-----------------------------------------------------------------|
G|-----------------------------------------------------------------|
D|-------------------------------------------------5b6-br5-5-------|
A|-6-----------------------6p5-5h6-6-----------5h6-----------------|
E|-----------------------------------------------------------------|
   2:39
e|-----------------------------------------------------------------|
B|-----------------------------------------------------------------|
G|-----------------------------------------------------------------|
D|-----------------------------------------------------------------|
A|-6-------------------------------5-----------------------5-------|
E|-----------------------------------------------------------------|
   2:43
e|-----------------------------------------------------------------|
B|-----------------------------------------------------------------|
G|-----------------------------------------------------------------|
D|-------------------------------------------------5b6-br5-5-------|
A|-6-----------------------6p5-5h6-6-----------5h6-----------------|
E|-----------------------------------------------------------------|
   2:48
e|-----------------------------------------------------------------|
B|-----------------------------------------------------------------|
G|-----------------------------------------------------------------|
D|-----------------------------------------------------------------|
A|-6-----------------------8---6---5-------------------------------|
E|-------------------------------------------------6---------------|
   2:53
e|-----------------------------------------------------------------|
B|-----------------------------------------------------------------|
G|-----------------------------------------------------------------|
D|-------------------------------------------------5b6-br5-5-------|
A|-6-----------------------6p5-5h6-6-----------5h6-----------------|
E|-----------------------------------------------------------------|

   3:03
e|-----------------------------------------------------------------|
B|-----------------------------------------------------------------|
G|-----------------------------------------------------------------|
D|-----------------------------------------------------------------|
A|-6-------------------------------5-----------------------5-------|
E|-----------------------------------------------------------------|
   3:07
e|-----------------------------------------------------------------|
B|-----------------------------------------------------------------|
G|-----------------------------------------------------------------|
D|-------------------------------------------------5b6-br5-5-------|
A|-6-----------------------6p5-5h6-6-----------5h6-----------------|
E|-----------------------------------------------------------------|
   3:12
e|-----------------------------------------------------------------|
B|-----------------------------------------------------------------|
G|-----------------------------------------------------------------|
D|-----------------------------------------------------------------|
A|-6-----------------------8---6---5-------------------------------|
E|-------------------------------------------------6---------------|
   3:17
e|-----------------------------------------------------------------|
B|-----------------------------------------------------------------|
G|-----------------------------------------------------------------|
D|-------------------------------------------------5b6-br5-5-------|
A|-6-----------------------6p5-5h6-6-----------5h6-----------------|
E|-----------------------------------------------------------------|

   3:22                                |-->    p.m.   <--|
e|-----------------------------------------------------------------|
B|-----------------------------------------------------------------|
G|-----------------------------------------------------------------|
D|-----------------------------------------------------------------|
A|-6---5h6-----5h6-----5h6-----5h6-5---5-5-5-5-5-5-5-5-5-5-6p5-5h6-|
E|-----------------------------------------------------------------|
   3:26
e|-----------------------------------------------------------------|
B|-----------------------------------------------------------------|
G|-----------------------------------------------------------------|
D|---------5-----6-5-----------------------5-----------------------|
A|-6---5-6---6-------6-5-x-5h6-5---6---5-6---6-5-6-5-6-8-5-x-6-----|
E|-------------------------------------------------------------6-6-|
   3:31                                |-->    p.m.   <--|
e|-----------------------------------------------------------------|
B|-----------------------------------------------------------------|
G|-----------------------------------------------------------------|
D|-----------------------------------------------------------------|
A|-6---5h6-----5h6-----5h6-----5h6-5---5-5-5-5-5-5-5-5-5-5-6p5-5h6-|
E|-----------------------------------------------------------------|
   3:36
e|-----------------------------------------------------------------|
B|-----------------------------------------------------------------|
G|-----------------------------------------------------------------|
D|---------5-----6-5-----------------------5-----------------------|
A|-6---5-6---6-------6-5-x-5h6-5---6---5-6---6-5-6-5-6-8-5-x-6-----|
E|-------------------------------------------------------------6-6-|

   3:41
e|-----------------------------------------------------------------|
B|-----------------------------------------------------------------|
G|-----------------------------------------------------------------|
D|-6p5---8p5---6p5---8p5---5h6p5---3---3-3-3h5p3-------------------|
A|-----------------------------------------------6---6-6p5-5---5-5-|
E|-----------------------------------------------------------------|
   3:46
e|-----------------------------------------------------------------------|
B|-----------------------------------------------------------------------|
G|-----------------------------------------------------------------------|
D|---------5-----8-------5-----------------5h6p5-8---10---10-10/13-13-13-|
A|-6---5-5---6-------6-8---6---5-5-6---5-5-------------------------------|
E|-----------------------------------------------------------------------|
   3:51
e|----------------------------------------------------------------------------------------|
B|----------------------------------------------------------------------------------------|
G|----------------------------------------------------------------------------------------|
D|-13---12h13-13---12-13---15---15-13---13-13-12-----12-12-13-12-13p12-10-12-8-10-6---6-6-|
A|----------------------------------------------------------------------------------------|
E|----------------------------------------------------------------------------------------|
   3:55
e|-----------------------------------------------------------------|
B|-----------------------------------------------------------------|
G|-----------------------------------------------------------------|
D|-5---5-5-6-5---5-------------------------5-6-5-8---6-5-----------|
A|-------------8---6---6-6-6p5-5-5-6---5-6---------------8-6-6-5-5-|
E|-----------------------------------------------------------------|

   4:00
e|-----------------------------------------------------------------|
B|-----------------------------------------------------------------|
G|-----------------------------------------------------------------|
D|-----------------------------------------------------------------|
A|-6-------------------------------5-----------------------5-------|
E|-----------------------------------------------------------------|
   4:05
e|-----------------------------------------------------------------|
B|-----------------------------------------------------------------|
G|-----------------------------------------------------------------|
D|-------------------------------------------------5b6-br5-5-------|
A|-6-----------------------6p5-5h6-6-----------5h6-----------------|
E|-----------------------------------------------------------------|
   4:10
e|-----------------------------------------------------------------|
B|-----------------------------------------------------------------|
G|-----------------------------------------------------------------|
D|-----------------------------------------------------------------|
A|-6-----------------------8---6---5-------------------------------|
E|-------------------------------------------------6---------------|
   4:15
e|-----------------------------------------------------------------|
B|-----------------------------------------------------------------|
G|-----------------------------------------------------------------|
D|-------------------------------------------------5b6-br5-5-------|
A|-6-----------------------6p5-5h6-6-----------5h6-----------------|
E|-----------------------------------------------------------------|

   4:19                                |-->    p.m.   <--|
e|-----------------------------------------------------------------|
B|-----------------------------------------------------------------|
G|-----------------------------------------------------------------|
D|-----------------------------------------------------------------|
A|-6---5h6-----5h6-----5h6-----5h6-5---5-5-5-5-5-5-5-5-5-5-6p5-5h6-|
E|-----------------------------------------------------------------|
   4:24
e|-----------------------------------------------------------------|
B|-----------------------------------------------------------------|
G|-----------------------------------------------------------------|
D|---------5-----6-5-----------------------5-----------------------|
A|-6---5-6---6-------6-5-x-5h6-5---6---5-6---6-5-6-5-6-8-5-x-6-----|
E|-------------------------------------------------------------6-6-|
   4:29                                |-->    p.m.   <--|
e|-----------------------------------------------------------------|
B|-----------------------------------------------------------------|
G|-----------------------------------------------------------------|
D|-----------------------------------------------------------------|
A|-6---5h6-----5h6-----5h6-----5h6-5---5-5-5-5-5-5-5-5-5-5-6p5-5h6-|
E|-----------------------------------------------------------------|
   4:34
e|-----------------------------------------------------------------|
B|-----------------------------------------------------------------|
G|-----------------------------------------------------------------|
D|---------5-----6-5-----------------------5-----------------------|
A|-6---5-6---6-------6-5-x-5h6-5---6---5-6---6-5-6-5-6-8-5-x-6-----|
E|-------------------------------------------------------------6-6-|

   4:39
e|-----------------------------------------------------------------|
B|-----------------------------------------------------------------|
G|-----------------------------------------------------------------|
D|-----------------------------------------------------------------|
A|-6-------------------------------5-----------------------5-------|
E|-----------------------------------------------------------------|
   4:43
e|-----------------------------------------------------------------|
B|-----------------------------------------------------------------|
G|-----------------------------------------------------------------|
D|-------------------------------------------------5b6-br5-5-------|
A|-6-----------------------6p5-5h6-6-----------5h6-----------------|
E|-----------------------------------------------------------------|
   4:48
e|-----------------------------------------------------------------|
B|-----------------------------------------------------------------|
G|-----------------------------------------------------------------|
D|-----------------------------------------------------------------|
A|-6-----------------------8---6---5-------------------------------|
E|-------------------------------------------------6---------------|
   4:53
e|-----------------------------------------------------------------|
B|-----------------------------------------------------------------|
G|-----------------------------------------------------------------|
D|-------------------------------------------------5b6-br5-5-------|
A|-6-----------------------6p5-5h6-6-----------5h6-----------------|
E|-----------------------------------------------------------------|
   4:58
e|-----------------------------------------------------------------|
B|-----------------------------------------------------------------|
G|-----------------------------------------------------------------|
D|-----------------------------------------------------------------|
A|-6-------------------------------5-----------------------5-------|
E|-----------------------------------------------------------------|
   5:03
e|-----------------------------------------------------------------|
B|-----------------------------------------------------------------|
G|-----------------------------------------------------------------|
D|-------------------------------------------------5b6-br5-5-------|
A|-6-----------------------6p5-5h6-6-----------5h6-----------------|
E|-----------------------------------------------------------------|
   5:07
e|-----------------------------------------------------------------|
B|-----------------------------------------------------------------|
G|-----------------------------------------------------------------|
D|-----------------------------------------------------------------|
A|-6-----------------------8---6---5-------------------------------|
E|-------------------------------------------------6---------------|
   5:12
e|-----------------------------------------------------------------|
B|-----------------------------------------------------------------|
G|-----------------------------------------------------------------|
D|-------------------------------------------------5b6-br5-5-------|
A|-6-----------------------6p5-5h6-6-----------5h6-----------------|
E|-----------------------------------------------------------------|

************************************

| /   slide up
| \   slide down
| h   hammer-on
| p   pull-off
| x   Mute note
| b   Bend
| br  Bend release
| p.m. Palm mute

************************************

            
            
Suggest correction
Creating personal tab
Creating personal tab
You can edit any tab online and save it as your Personal.

You can edit, replace or remove any tab part or add personal notes – all changes will be seen only by you.

Personal tabs can be accessed anytime from any device, even offline.
Learn more »
Give kudos to tab author, rate the tab!
1 2 3 4 5
comments
print report bad tab
guest
You may want to rate the tab now too:
select rating
Wanna post a correction for this tab? Suggest correction