Oops, an error
Loading. Please wait.

Mexico Bass Tab

by Kain
1,342 views 1 this week
no commentswrite comment
1 2 3 4 5
please rate
add to favorites
launch autoscroll
font size
0
reset
guitar tuner
Autoscroll
slow
fast
+/-
esc
set tempo
stop
Help us to improve Ultimate-Guitar.com Take our survey!
×
Author
Difficulty
intermediate
Intro
G---------------------------------|
D------4*-------7*----4*-------7--|
A----------7*------------7*-------|
E---------------------------------|


Couplet

G-------------------------------------------------------|
D-4*-----7-*--4*-----7*-------------4-----7-----------7-|
A----7*---------7*-------2-4/5---7-----7/9-9/7--5--7----|
E-------------------------------------------------------|

G----------------------------------------------|
D--44---------77---77---44----------77---77----|
A-----4--77------7---------4--77-------7-------|
E-----------7--------------------7-------------|


G-----------------------------------------------|
D----------------44--44--2-------------77-------|
A--2-4-55---77------4-------55----77-------7----|
E---------5----7---------------5-----7----------|

Refrain

G------------------------------------------|
D--77---77-----------5--77---77------------|
A-----7----7-55---55-------7----5-77----77-|
E---------------5--------------------7-----|


G------------------------------------------|
D------------------------44---44-----------|
A-55---77----55---77--------4--------------|
E----5-----7----5-----7--------------------|


G-------7------------------------------------|
D--7/9----9-7----------------77---7----------|
A-------------9--55----77-------7------------|
E-------------------5-----7------------------|

Couplet

G----------------------------------------------|
D--44---------77---77---44----------77---77----|
A-----4--77------7---------4--77-------7-------|
E-----------7--------------------7-------------|


G-----------------------------------------------|
D----------------44--44--2-------------77-------|
A--2-4-55---77------4-------55----77-------7----|
E---------5----7---------------5-----7----------|


G----------------------------------------------|
D--44---------77---77---44----------77---77----|
A-----4--77------7---------4--77-------7-------|
E-----------7--------------------7-------------|


G-----------------------------------------------|
D----------------44--44--2-------------77-------|
A--2-4-55---77------4-------55----77-------7----|
E---------5----7---------------5-----7----------|

Refrain

G------------------------------------------|
D--77---77-----------5--77---77------------|
A-----7----7-55---55-------7----5-77----77-|
E---------------5--------------------7-----|


G------------------------------------------|
D------------------------44---44-----------|
A-55---77----55---77--------4--------------|
E----5-----7----5-----7--------------------|


G-------7------------------------------------|
D--7/9----9-7----------------77---7----------|
A-------------9--55----77-------7------------|
E-------------------5-----7------------------|

final


G----------------------------------------|
D------7---------7---------7----------7--|
A--7-5----57--5----57---5-----57---5-----|
E----------------------------------------|

+ ou - 10 fois

G---------------------------|
D--------------------7777---|
A--777---777---555----------|
E------7-----7-----5--------|
Suggest correction
Give kudos to tab author, rate the tab!
1 2 3 4 5
comments
print report bad tab
guest
You may want to rate the tab now too:
select rating
Wanna post a correction for this tab? Suggest correction