Oops, an error
Loading. Please wait.

Always Happens Like That Bass Tab

version 1
version 1

Whole song

Interactive

615 views 3 this week
1 commentread comment
1 2 3 4 5
excellent!
x 3
add to favorites
launch autoscroll
font size
0
reset
guitar tuner
Tab Pro tools
  • play this tab
  • loop segment
  • change instrument
  • show fretboard
  • metronome
×
Best way to learn
"Always Happens Like That"
Autoscroll
slow
fast
+/-
esc
set tempo
stop
-----------------------------------------------------------------
Always Happens Like That - Kaiser Chiefs 
-----------------------------------------------------------------

Tabbed By : Andrei Poliakov
e-mail: Xfools@gmail.com

Tuning: EADG 

Intro + 1st Verse: 

0:02 - this will repeat all the way to Chorus just keep playing

G|---------------------------------------------------------------|
D|---------------------------------------------------------------|
A|---------------------------------------------------------------|
E|-6-0-6--0-6-5--8-0-8--0-8-0------------------------------------|

Until Chorus comes in @ 0:48 - 

G|---------------------------------------------------------------|
D|------7-------------5------------------------------------------|
A|--5------------3-----------------------------------------------|
E|-------6--------------5----------------------------------------|

End of the Chorus x1 here @ 1:02 - 

G|---------------------------------------------------------------|
D|---------------------------------------------------------------|
A|---------------------------------------------------------------|
E|-66--55--33--11----55--33--11--00------------------------------|

Then goes the Verse again same as the beginning + Chorus exactly
the same, only the finishing part is repeated 2 times...

Then little intermission and guitar "solo", where you still play
verse riff... and @ 2:16 --- 

G|---------------------------------------------------------------|
D|---------------------------------------------------------------|
A|---------------------------------------------------------------|
E|-6\8-----8/6------6\8----8/6-----------------------------------|

@ 2:36 start the regular verse pattern again and the end is on -

G|---------------------------------------------------------------|
D|---7--7--7-----------------------------------------------------|
A|---5--5--5-----------------------------------------------------|
E|---------------------------------------------------------------|

Let ring....

Please don't hesitate to email with correction, I would love to know myself :)

| /  slide up
| \  slide down
| h  hammer-on
| p  pull-off
| ~  vibrato
| +  harmonic
| x  Mute note
comments
We did not receive enough feedback on this tab! Please rate:
print report bad tab
1 2 3 4 5
1 comment total.
0 reply
connorwilson4499 wrote on August 3 2015, 04:01 pm

Think the intro is this:

G|---------------------------------------------------------------|
D|---------------------------------------------------------------|
A|-1---1---1----3---3---3----------------------------------------|
E|---1---1---1----3---3---3--------------------------------------|

Otherwise very good

I want to post or [tab]
guest
You may want to rate the tab now too:
select rating
Please do not post tabs as comments. Select "correction" instead!