Oops, an error
Loading. Please wait.

Born To Be A Dancer bass

version 1
version 1

Whole song

Interactive

1,860 views 3 this week
3 commentsread comments
1 2 3 4 5
x 5
add to favorites
×
Save as Personal and add changes to this tab that will be seen only by you. Learn more ›
×
You can save this tab as Personal to edit and correct it or add notes. All changes will be seen only by you. Learn more »
launch autoscroll
font size
0
reset
guitar tuner
edit
Autoscroll
slow
fast
+/-
esc
set tempo
stop
Author
Born to be a Dancer
Kaiser Chiefs

Belting song! Hope you like this tab.

Intro

G-----------------------|-----------------------------|
D-----------------------|-----------------------------|
A-3-11-3-55-3-11-1113333|5-5-0-0-5-5787531-1---1-1-0-0|
E-----------------------|-------------------1-1-------|x2

Verse

G-----------------------------|
D-----------------------------|
A-5-5-0-0-5-5787531-1---1-1-0-0|
E--------------------1-1-------|x2

Chorus

G------------------------------------|
D------------------------------------|
A------------------------------------|
E-33333333-11111111-66666666-44444444| X2

Oh oh oh bit

G----------------|
D----------------|
A----------------|
E-3-33-33-3-2-4| x2

Verse x2
Chorus x1
oh oh oh bit x2 plus this:

G----------------|
D----------------|
A----------------|
E-6-66-66-6-4-8|x2

Bridge

G-------------------------------|
D-------------------------------|
A-------------------------------|
E-5-5-3-3-5-5-653101-1-0-0-1-1-00|X2

G--------------------------------------------|
D--------------------------------------------|
A-5-57-78-8-10-13-12-000-12-000-12-000-12-000|
E--------------------------------------------|X4

Chorus x4

End with E-3-33-33|

Enjoy, let me know what u think.

            
            
Suggest correction
Creating personal tab
Creating personal tab
You can edit any tab online and save it as your Personal.

You can edit, replace or remove any tab part or add personal notes – all changes will be seen only by you.

Personal tabs can be accessed anytime from any device, even offline.
Learn more »
comments
print report bad tab
3 comments total.
0 reply
Zaq 31 May 21, 2006 11:46 AM

You messed up the oh ohs

E|-33--33--33--3-1-5--

Other than that great tab mate !

0 reply
adonis123 31 Dec 30, 2007 02:45 AM

great tab, and i thing that it's better if you did E|-33--33--33--3-1-5--
lika zag said

0 reply
Joshua6464 40 Aug 22, 2010 04:02 AM

Isn't it E| -33--33--33--3-1-4--?

guest
You may want to rate the tab now too:
select rating
Wanna post a correction for this tab? Suggest correction