Oops, an error
Loading. Please wait.

Caroline Yes Bass Tab

186 views 1 this week
no commentswrite comment
1 2 3 4 5
3 more votes to show rating
add to favorites
launch autoscroll
font size
0
reset
guitar tuner
Autoscroll
slow
fast
+/-
esc
set tempo
stop
Help us to improve Ultimate-Guitar.com Take our survey!
×
-------------------------------------------------------------------------------
                             Caroline Yes - Kaiser Chiefs
-------------------------------------------------------------------------------
Tabbed by: Mike Kunz
E-mail: rmjk21@embarqmail.com

Tuning: Standard

 ( Intro ) 
    
G|---99---99---99---99---99---99---99---99-|
D|-----------------------------------------|
A|-7----7----7----7----7----7----7----7----|
E|-----------------------------------------|

  You've done well my boy, my oh, my
  
G|---99---99-----------99---99-----------99---99-------------------99---99---99---99-|
D|-----------------------------------------------------------------------------------|
A|-7----7----3-3-----7----7----3-3-----7----7----3-3-----3-3-----7----7----7----7----|
E|---------------5-5---------------5-5---------------5-5-----5-5---------------------|

 You've got everything so why oh, why 
 
G|---99---99-----------99---99-----------99---99-------------------99---99---99---99-|
D|-----------------------------------------------------------------------------------|
A|-7----7----3-3-----7----7----3-3-----7----7----3-3-----3-3-----7----7----7----7----|
E|---------------5-5---------------5-5---------------5-5-----5-5---------------------|

  In my life
  
G|-----------------------------------------------------------------|
D|-----------------------------------------------------------------|
A|-----------------7-7-7-7-7-7-7-7-----------------7-7-7-7-7-7-7-7-|
E|-5-5-5-5-3-3-2-2-----------------5-5-5-5-3-3-2-2-----------------|

  You go your way

G|---99---99-----------99---99-----------99---99-------------------99---99---99---99-|
D|-----------------------------------------------------------------------------------|
A|-7----7----3-3-----7----7----3-3-----7----7----3-3-----3-3-----7----7----7----7----|
E|---------------5-5---------------5-5---------------5-5-----5-5---------------------|
 
  In my life

G|---------------------------------------------------------------------|
D|---------------------------------------------------------------------|
A|-----------------7-7-7-7-7-7-7-7-----------------7-7-7-7-7-7-7-7-7-7-|
E|-5-5-5-5-3-3-2-2-----------------5-5-5-5-3-3-2-2---------------------|

  In my life

G|----------------------------------|
D|----------------------------------|
A|-----------------7----------------|
E|-5-5-5-5-3-3-2-2------------------|

  ( interlude )                                   
G|-------------------------------------------------------------------------|
D|-------------------------------------------------------------------------|
A|-7-7-7-7-3-3-----7-7-7-7-3-3-----7-7-7-7-3-3-----3-3-----7-7-7-7-7-7-7-7-|
E|-------------5-5-------------5-5-------------5-5-----5-5-----------------|

           ahhhh, ahhhh                                   
G|-------------------------------------------------------------------------|
D|-------------------------------------------------------------------------|
A|-7-7-7-7-3-3-----7-7-7-7-3-3-----7-7-7-7-3-3-----3-3-----7-7-7-7-7-7-7-7-|
E|-------------5-5-------------5-5-------------5-5-----5-5-----------------|

  In my life
  
G|---------------------------------------------------------------------|
D|---------------------------------------------------------------------|
A|-----------------7-7-7-7-7-7-7-7-----------------7-7-7-7-7-7-7-7-7-7-|
E|-5-5-5-5-3-3-2-2-----------------5-5-5-5-3-3-2-2---------------------|

  ( outro )  
  In my life
  
G|-------------------------------------------------------------------|
D|-------------------------------------------------------------------|
A|-----------------7-7-7-7-7-7-7-7-----------------7-----------------|
E|-5-5-5-5-3-3-2-2-----------------5-5-5-5-3-3-2-2-------------------|
Suggest correction
Give kudos to tab author, rate the tab!
1 2 3 4 5
comments
print report bad tab
guest
You may want to rate the tab now too:
select rating
Wanna post a correction for this tab? Suggest correction