Oops, an error
Loading. Please wait.

Everyday I Love You Less And Less Bass Tab

version 1
version 1

Whole song

Interactive

8,112 views 12 this week
4 commentsread comments
1 2 3 4 5
x 5
add to favorites
launch autoscroll
font size
0
reset
guitar tuner
Autoscroll
slow
fast
+/-
esc
set tempo
stop
Help us to improve Ultimate-Guitar.com Take our survey!
×
Author
Kaiser Chiefs-Everyday I Love You Less And Less
Tabbed By; matt_mercer
Email(comments and corrections) sm007a6720@blueyonder.co.uk


Tuning: Standard (E A D G)

Intro

G:---------11--------|
D:------------11-9-8-|
A:999999999--9--9-9--|
E:-------------------|

Verse

G:--------------------------------|
D:--------------------------------|
A:99999999999999999999999999999999|
E:--------------------------------|  x4

Pre-Chorus

G:-----------------------------------------------------------------|
D:55555555555555555555555555555555---------------------------------|
A:--------------------------------99999999999999999999999999999999-|
E:-----------------------------------------------------------------|

G:--------------------------------|
D:55555555555555555555555555555555|
A:--------------------------------|
E:--------------------------------|

Chorus

G:-----------------------------------------------------------------|
D:----------------777777779999999-----------------7777777799999999-|
A:9999999977777777---------------9999999977777777------------------|
E:-----------------------------------------------------------------|

G:------------------------|
D:999999999999999999999999|
A:------------------------|
E:------------------------|

Have Fun With This Song. Kaiser Chiefs rock!
Suggest correction
comments
print report bad tab
4 comments total. Showing first comments.
0 reply
matt550 10 Oct 04, 2005 12:40 PM

i lik it

0 reply
sofie-lu 10 Feb 11, 2006 02:54 PM

Awsome!

+1 reply
Bam_HIM_Bassist 50 Jul 05, 2006 02:33 AM

Intro should be

G:---------11-------------|
D:------------11----------|
A:999999999--9--9-13-9-11-|
E:------------------------|

guest
You may want to rate the tab now too:
select rating
Wanna post a correction for this tab? Suggest correction