Oops, an error
Loading. Please wait.

I Predict A Riot Tab

version 1
version 1

Interactive

51,765 views 24 this week
6 commentsread comments
1 2 3 4 5
x 19
add to favorites
launch autoscroll
font size
0
reset
how to read this tab
guitar tuner
backing track
0:00
0:00
Autoscroll
slow
fast
+/-
esc
set tempo
stop
Author
I PREDICT A RIOT
The Kaiser Chiefs

[Break]
e|-------------------------------------------------------|
B|-------------------------------------------------------|
G|-------------------------------------------------------|
D|----------------6--65--53--3---------------------------|
A|3---6-5-3---6-5-------------6-5-3  leads on to verse 1-|
E|-------------------------------------------------------|(x4)

[Intro]
e|-------------------------------------------------------|
B|-------------------------------------------------------|
G|-------------------------------------------------------|
D|----------------6--65--53--3---------------------------|
A|3---6-5-3---6-5-------------6-5-3  leads on to verse 1-|
E|-------------------------------------------------------|(x4)

[Verse]
e|----------------|
B|----------------|
G|----------------|
D|----------------|   x4 I think
A|3-------1-------|
E|------------1---|

[Bridge]
A|3---2---1-------|                   A|-3333333333333333-|
E|------------1---|   x2, second time E|-1111111111111111-|
                                 ends
[Chorus]
G#5               C#5         G#5       C#5
I Predict a Riot, I Predict A Riot

Repeat as many times as seems fit.

[THEN SECOND TIME ROUND]
C#5           D               C
And If Theres Anybody Left In Here
     Bb                     G#
That doesn't want to be out theeeeeeeeeeeeeeere

[Verse]
e|----------------|
B|----------------|
G|----------------|
D|----------------|   x2
A|3-------1-------|
E|------------1---|

[Bridge]
A|3---2---1-------|                   A|-3333333333333333-|
E|------------1---|   x2, second time E|-1111111111111111-|

[Chorus]
G#5               C#5         G#5       C#5
I Predict a Riot, I Predict A Riot

Repeat as many times as seems fit.

[THEN SECOND TIME ROUND]
C#5           D               C
And If Theres Anybody Left In Here
     Bb                     G#
That doesn't want to be out theeeeeeeeeeeeeeere

[Break]
e|-------------------------------------------------------|
B|-------------------------------------------------------|
G|-------------------------------------------------------|
D|----------------6--65--53--3---------------------------|
A|3---6-5-3---6-5-------------6-5-3  leads on to verse 1-|
E|-------------------------------------------------------|(x4)

[Chorus]
G#5               C#5         G#5       C#5
I Predict a Riot, I Predict A Riot

Repeat as many times as seems fit.

[THEN SECOND TIME ROUND]
C#5           D               C
And If Theres Anybody Left In Here
     Bb                     G#
That doesn't want to be out theeeeeeeeeeeeeeere

[Verse]
e|----------------|
B|----------------|
G|----------------|
D|----------------|   x4 I think
A|3-------1-------|
E|------------1---|

[Bridge]
A|3---2---1-------|                   A|-3333333333333333-|
E|------------1---|   x2, second time E|-1111111111111111-|

[Chorus]
G#5               C#5         G#5       C#5
I Predict a Riot, I Predict A Riot

Repeat as many times as seems fit.

[THEN SECOND TIME ROUND]
C#5           D               C
And If Theres Anybody Left In Here
     Bb                     G#
That doesn't want to be out theeeeeeeeeeeeeeere
Suggest correction
comments
print report bad tab
6 comments total. Showing first comments.
+1 reply
smash_your_mom 10 Dec 31, 2005 03:34 AM

i love that begining bit.......

0 reply
yorkmann 10 Feb 26, 2006 06:00 AM

there wasnt much detail in it and the intro was wrong. iv tabbed the correct intro to it if you want to look at it. it was ok an i did learn how to do the intro but i had to fiddle with it untill i got it right

+1 reply
ginger balls 10 Feb 28, 2006 03:48 AM

my first ever tab ive had a go on and ive nailed it r kid cheers

guest
You may want to rate the tab now too:
select rating
Wanna post a correction for this tab? Suggest correction