Oops, an error
Loading. Please wait.

I Predict A Riot Tab

version 4
version 4

Interactive

3,770 views 1 this week
no commentswrite comment
1 2 3 4 5
accurate
x 4
add to favorites
launch autoscroll
font size
0
reset
how to read this tab
guitar tuner
Tab Pro tools
  • play this tab
  • loop segment
  • change instrument
  • show fretboard
  • metronome
×
Best way to learn
"I Predict A Riot"
Autoscroll
slow
fast
+/-
esc
set tempo
stop
Contributor
Kaiser Chiefs - I PREDICT A RIOT

INTRO
E -------------------------------------------------------|
B -------------------------------------------------------|
G -------------------------------------------------------|
D ----------------6--65--53--3---------------------------|
A 3---6-5-3---6-5-------------6-5-3----------------------| x2
E -------------------------------------------------------|


        C                            Eb          F*                C
V1:     oha, watching the people get larey, it's not very pretty i tell thee
                                      Eb        F*                C
        walking through town is quite scary and not very sensible either
                                    Eb         F*                          C
        a friend of a friend he got beaten, he looked the wrong way at a police man
                                     Eb          F*
        would never have happened to smeaton and old leodiensian



        C         G    Bb                   F       
P/C1:   ah___ ah, ah___ la, la, la, la, la, la___ ah, ah
        C         G    Bb                   F
        ah___ ah, ah___ la, la, la, la, la, la_______



        G#                C#          G#   C#
C1:     i predict a riot, i predict a riot
        G#                C#          G#   C#
        i predict a riot, i predict a riot



        C                         Eb    F*                  C
V2:     oha, i tried to get in my taxi, man in a tracksuit attacks me
                                 Eb          F*                        C
        he said that he saw it before me, he wants to get things a bit gory
                                 Eb            F*                   C
        girls run around with no clothes on to borrow a pound for a condom
                                         Eb              F
        if wasn't for chip fat they'd be frozen, they're not very sensible


        C         G    Bb                   F       
P/C2:   ah___ ah, ah___ la, la, la, la, la, la___ ah, ah
        Cm        G    Bb                   F
        ah___ ah, ah___ la, la, la, la, la, la_______



        G#                C#          G#   C#
C2:     i predict a riot, i predict a riot
        G#                C#          G#   C#
        i predict a riot, i predict a riot
                       D*              C*
        and if there's anybody left in here 
                 Bb*                    G#
        who that doesn't want to be out there____ oh



SOLO: - fast bit

E [-----------------------------------------------------------------]
B [-----------------------------------------------------------------]
G [-5-5-5-5-5-5-5-5-8-8-8-8-7-7-7-7-5-5-5-5-5-5-5-5-8-8-8-8-7-7-7-7-]
D [-5-5-5-5-5-5-5-5-8-8-8-8-7-7-7-7-5-5-5-5-5-5-5-5-8-8-8-8-7-7-7-7-]
A [-3-3-3-3-3-3-3-3-6-6-6-6-5-5-5-5-3-3-3-3-3-3-3-3-6-6-6-6-5-5-5-5-]
E [-----------------------------------------------------------------]

E [-------------------------------------------------------------------------
B [-------------------------------------------------------------------------
G [-13-13-13-13-13-13-13-13-12-12-12-12-12-12-12-12-10-10-10-10-10-10-10-10-
D [-13-13-13-13-13-13-13-13-12-12-12-12-12-12-12-12-10-10-10-10-10-10-10-10-
A [-11-11-11-11-11-11-11-11-10-10-10-10-10-10-10-10--8--8--8--8--8--8--8--8-
E [-------------------------------------------------------------------------

E -------------------]
B -------------------]
G -8-8-8-8-7-7-7-7-5-]
D -8-8-8-8-7-7-7-7-5-]  x2
A -6-6-6-6-5-5-5-5-3-]
E -------------------]


        C                            Eb          F*                C
V3:     oha, watching the people get larey, it's not very pretty i tell thee
                                      Eb        F*           
        walking through town is quite scary and not very sensible



        C         G    Bb                   F       
P/C3:   ah___ ah, ah___ la, la, la, la, la, la___ ah, ah
        C         G    Bb                   F
        ah___ ah, ah___ la, la, la, la, la, la_______ oh_____ oh_____ oh_____



        G#                C#          G#   C#
C3:     i predict a riot, i predict a riot
        G#                C#          G#   C#
        i predict a riot, i predict a riot
                       D*              C*
        and if there's anybody left in here 
                 Bb*                    G#
        who that doesn't want to be out there
        C#          G#    C#          G#
        i predict a riot, i predict a riot
        C#          G#    C#          G#   C#   G#
        i predict a riot, i predict a riot
comments
print report bad tab
I want to post or [tab]
guest
You may want to rate the tab now too:
select rating
Please do not post tabs as comments. Select "correction" instead!