Oops, an error
Loading. Please wait.

Little Shocks Bass Tab

163 views 1 this week
no commentswrite comment
1 2 3 4 5
2 more votes to show rating
add to favorites
launch autoscroll
font size
0
reset
guitar tuner
Autoscroll
slow
fast
+/-
esc
set tempo
stop
Help us to improve Ultimate-Guitar.com Take our survey!
×
Author
Difficulty
novice
Verse
G ------------|
D ------------|   Repeat until pre-chorus
A ------6-0-5-|
E --0-0-------|

Pre-chorus
G ----------------------------------|
D ----------------------------------|
A ----------------------------------|
E --7-7-7-7-7-7-7-7-7-7-7-7-7-7-7-7-|

G --------------------------------------------|
D --------------------------------------------|
A ------6-0-5-----6-0-5------6-0-5------6-0-5-|
E --0-0-------0-0--------0-0--------0-0-------|


Chorus
G ----------------------------------------------------------------|
D ----------------------------------------------------------------|
A ----------------------------------------------------------------|
E --0-0-0-0-0-0-0-0-3-3-3-3-3-3-5-5-7-7-7-7-7-7-7-5-5-5-5-5-5-5-5-|

G ----------------------------------------------------------------|
D ----------------------------------------------------------------|
A ----------------------------------------------------------------|
E --0-0-0-0-0-0-0-0-7-7-7-7-7-7-5-5-2-2-2-2-2-2-2-0-0-0-0-0-0-0-0-|
(last part chorus 2 and 3 only)

Verse

Pre-chorus

Chorus

Bridge
G --------------------------------------------------------------------------|
D --------------------------------------------------------------------------|
A ------1---------1----3----1--------------1---------1----3----1------5-8-3-|
E -3---------1-------------------3----3---------1-------------------3-------|

G -------------------------------------------------------------------------|
D -------------------------------------------------------------------------|
A --77777777777777777777777777777777777777777777777777777777777777777777777|
E -------------------------------------------------------------------------|

Pre-chorus

Chorus X2

End on Verse
Suggest correction
Give kudos to tab author, rate the tab!
1 2 3 4 5
comments
print report bad tab
guest
You may want to rate the tab now too:
select rating
Wanna post a correction for this tab? Suggest correction