Oops, an error
Loading. Please wait.

Little Shocks Tab

version 1
version 1

Whole song

1,466 views 1 this week
2 commentsread comments
1 2 3 4 5
1 last vote to show rating
add to favorites
launch autoscroll
font size
0
reset
how to read this tab
guitar tuner
Autoscroll
slow
fast
+/-
esc
set tempo
stop
Help us to improve Ultimate-Guitar.com Take our survey!
×
Author
Seeing as the new album is set to be a "guitar heavy" album i thought this might be useful
i've started trying to work out how to play Little Shocks but the only bit i've got so 
far is the chorus. But i'll add more and tab it properly as i get it

Little Shocks (guitar chords)

Main Riff
E---------------------------|
B---------------------------|
G---------------------------|
D---------------------------|
A------7---7-------7---7----|
E-5-5---5----5-5---5--------|

Bridge
"All these little shocks..."
Bm then main riff

chorus/rhythm for end solo -
"i wish i could give..."
E G Bm A

Middle 8 bit

All palm muted

E-------------------------------|
B-------------------------------|
G-------------------------------|
D-2-2-2-2-2-2-2-2-2-2-2---------|
A-------------------------------|
E-------------------------------|

Read more: 
http://unofficialkc.proboards.com/index.cgi?board=general&action=display&thread=48#ixzz1OhLZTe2h
Suggest correction
Give kudos to tab author, rate the tab!
1 2 3 4 5
comments
print report bad tab
2 comments total.
0 reply
alexozzycake 27 Jun 26, 2011 03:15 PM

For the main riff, I think it sounds more like the song if you replace the second 7's with 6's, making it:

E---------------------------|
B---------------------------|
G---------------------------|
D---------------------------|
A------7-6-----------7-6----|
E-5-5---5-------5-5---5-----|

Otherwise great tab so far for a great song, chords seem perfect - can't wait for the rest! :)

0 reply
xmodernwayx 72 Jul 02, 2011 04:12 PM

Btw this is my tab. Whoever put this up stole it from http://unofficialkc.proboards.com/index.cgi?board=general&action=display&thread=48

Thanks for the correction though i will try it as soon as i can :D

guest
You may want to rate the tab now too:
select rating
Wanna post a correction for this tab? Suggest correction