Oops, an error
Loading. Please wait.

Little Shocks Tab

version 2
version 2

Whole song

829 views 1 this week
1 commentread comment
1 2 3 4 5
please rate
add to favorites
launch autoscroll
font size
0
reset
how to read this tab
guitar tuner
Autoscroll
slow
fast
+/-
esc
set tempo
stop
Help us to improve Ultimate-Guitar.com Take our survey!
×
Author
Difficulty
intermediate
Main Riff
E---------------------------|
B---------------------------|
G---------------------------|
D---------------------------|
A------7---7-------7---7----|
E-5-5---5----5-5---5--------|

Bridge
"All these little shocks..."
Bm then back to main riff

chorus/rhythm for end solo -
"i wish i could give..."
E G Bm A

Middle 8 bit

Bit of the solo...

E-------------------------------|
B-------------------------------|
G-5-3------5-3------5-3---------|
D------3-5------3-5------3------|
A-------------------------------|
E-------------------------------|


All palm muted

E-------------------------------|
B-------------------------------|
G-------------------------------|
D-2-2-2-2-2-2-2-2-2-2-2---------|
A-------------------------------|
E-------------------------------|

Should be correct. Will update with more of the solo as i work it out :)
Suggest correction
What's this?
You can suggest a correction to this tab. Community and Mods will review your correction and vote to approve or reject it.
comments
We did not receive enough feedback on this tab! Please rate:
print report bad tab
1 2 3 4 5
1 comment total.
0 reply
rockcan156 332 wrote on July 11 2011, 03:55 pm

I found a video from this song. So I decide to send you this link personnally.
http://www.youtube.com/watch?v=X9b-xgOg2Ro

So I think it's (not sure because the video isn't exact):

E-3---------------|------------------------|
B---6b6--6-7-7b7-7|------------------------|
G-----------------|-5-3-5-----5-3-5--------|
D-----------------|-----3-5-3-------3-5-3-5|
A-----------------|------------------------|
E-----------------|------------------------|

E-3---------------|
B---6b6--6-7-7b7-7|
G-----------------|
D-----------------|
A-----------------|
E-----------------|

I don't know the last segment of the solo!

guest
You may want to rate the tab now too:
select rating
Please do not post tabs as comments. Select "correction" instead!