Oops, an error
Loading. Please wait.

Loves Not A Competition But Im Winning Tab

version 1
version 1

Whole song

Interactive

13,457 views 1 this week
3 commentsread comments
1 2 3 4 5
x 7
add to favorites
launch autoscroll
font size
0
reset
how to read this tab
guitar tuner
Autoscroll
slow
fast
+/-
esc
set tempo
stop
Help us to improve Ultimate-Guitar.com Take our survey!
×
lovin their new album just thought id give this song a Quick go seen as though no one 
has had a try yet

its a lovely little acoustic ditty one of my favourite tracks from the album

Tuning: Standard (E A D G B E)

Chords:

 C  - 335553
 Gm - 355333
 Bb - 113331
 F  - 133211
 Cm - 335543

Guitar 1:  plays C,Gm,Bb,F,   its pretty easy to get the strumming pattern
  but when it gets to the lyrics "Loves not a competition" play Cm instead of the C

Guitar 2: plays this riff through parts of the song

 e--15-15-----------10-10--------------------|
 A--------13-13-------------8-8--8-----------|
 G-------------------------------------------|
 D-------------------------------------------|
 A-------------------------------------------|
 E-------------------------------------------|

dont think its 100% right but its sum where near
feel free to take this and improve it

Tabbed by: Chris Wood
Suggest correction
comments
print report bad tab
3 comments total.
0 reply
craZelz 83 Jan 15, 2008 05:47 AM

Sorry but i really don't think this sounds right, i saw them live about a month ago and i'm pretty sure he was playing
chords...

0 reply
Jeminayr 10 Feb 08, 2008 11:42 PM

Read the comments on the chords on this site. Someone got it right in there.

0 reply
nemokoning 10 Aug 01, 2009 12:20 PM

I think it's more like

e--15-15-----------10-10--------------------|
A--------13-13-------------8-8--8-----------|
G-------------------------------------------| x1
D-------------------------------------------|
A-------------------------------------------|
E-------------------------------------------|

e--15-15-----------10-10---8-8--8-8-8------|
A--------13-13------------------------------|
G-------------------------------------------|
D-------------------------------------------|
A-------------------------------------------|
E-------------------------------------------|

guest
You may want to rate the tab now too:
select rating
Wanna post a correction for this tab? Suggest correction