Oops, an error
Loading. Please wait.

Loves Not A Competition But Im Winning Tab

version 2
version 2

Whole song

Interactive

12,743 views 1 this week
3 commentsread comments
1 2 3 4 5
worth learning
x 6
add to favorites
launch autoscroll
font size
0
reset
how to read this tab
guitar tuner
Autoscroll
slow
fast
+/-
esc
set tempo
stop
Help us to improve Ultimate-Guitar.com Take our survey!
×
Difficulty
novice
-------------------------------------------------------------------------------
	     LOVE'S NOT A COMPETITION (BUT I'M WINNING) - Kaiser Chiefs
-------------------------------------------------------------------------------

Tabbed by: ~screenager~
Email: egleriel@hotmail.co.uk

Tuning: Standard (EADGBe)


Riff:

e|--15--15-------------------------------------------------------------------|
B|----------13--13-----------------------------------------------------------|
G|------------------15--15---------------------------------------------------|
D|--------------------------12--12--12-12-12---------------------------------|
A|---------------------------------------------------------------------------|
E|---------------------------------------------------------------------------|

e|--15--15-------------------------------------------------------------------|
B|----------13--13----------13--13--13-13-13---------------------------------|
G|------------------15--15---------------------------------------------------|
D|---------------------------------------------------------------------------|
A|---------------------------------------------------------------------------|
E|---------------------------------------------------------------------------|


[Riff x 2]


Verse 1:

C	Gm		  Bb	     F	     
I won't be the one to disappoint you any more
    C		Gm
And I know I've said all this
		Bb	 F
And that you've heard it all before


    C	     Gm			       Bb	F
The trick is getting you to think that all this was your idea
    C	     Gm
And this was everything
	    Bb	   F 
You've ever wanted out of here



Chorus:

Cm			  	  Gm
Love's not a competition, but I'm winning



Verse 2:

C	Gm		  Bb	     F
I'm not sure what's truly altruistic any more
C	   Gm			
When every good thing that I do
   Bb		      F
Is listed, and you're keeping score



Chorus:

Cm			  	  Gm
Love's not a competition, but I'm winning
Cm				  Gm
Love's not a competition, but I'm winning
	   C			      Gm
At least I thought I was, but there's no way of knowing
	   C			      Gm
At least I thought I was, but there's no way of knowing



    Gm				 Bb		     F
You know what's like when you're new to the game but I'm not



[Riff x2]


(Continue to end; Guitar 1 plays the riff, Guitar 2 plays the chords.)


C	Gm		  Bb	     F	     
I won't be the one to disappoint you
C	Gm		  Bb	     F	     
I won't be the one to disappoint you any more
C	Gm		  Bb	     F	     
I won't be the one to disappoint you
C	Gm		  Bb	     F	     
I won't be the one to disappoint you any more



| /  slide up
| \  slide down
| h  hammer-on
| p  pull-off
| ~  vibrato
| +  harmonic
| x  Mute note
===============================================================================
Suggest correction
comments
print report bad tab
3 comments total.
0 reply
Jeminayr 10 wrote on February 8 2008, 11:40 pm

Nice try but it's not right.

0 reply
nemokoning 10 wrote on August 1 2009, 12:21 pm

I think it's more like

e--15-15-----------10-10--------------------|
A--------13-13-------------8-8--8-----------|
G-------------------------------------------| x1
D-------------------------------------------|
A-------------------------------------------|
E-------------------------------------------|

e--15-15-----------10-10---8-8--8-8-8-------|
A--------13-13------------------------------|
G-------------------------------------------|
D-------------------------------------------| x1
A-------------------------------------------|
E-------------------------------------------|

0 reply
Jacap 89 wrote on March 15 2015, 08:30 am

It would easier to play it this way:

e--15--15-----------------------------------------
B------------13--13----15--15---------------------
G--------------------------------12--12-12-12-12--
D-------------------------------------------------
A-------------------------------------------------
E-------------------------------------------------

e--15--15-----------------------------------------
B------------13--13----15--15----13--13-13-13-13--
G-------------------------------------------------
D-------------------------------------------------
A-------------------------------------------------
E-------------------------------------------------

guest
You may want to rate the tab now too:
select rating
Wanna post a correction for this tab? Suggest correction