Oops, an error
Loading. Please wait.

Man On Mars Tab

851 views 1 this week
1 commentread comment
1 2 3 4 5
2 more votes to show rating
add to favorites
launch autoscroll
font size
0
reset
how to read this tab
guitar tuner
Autoscroll
slow
fast
+/-
esc
set tempo
stop
Help us to improve Ultimate-Guitar.com Take our survey!
×
Author
Difficulty
novice
Just the Chorus and The Solo at the moment but i'm still working on it :)

Man On Mars

chorus

E----------------------------|
B----------------------------|
G-9-7-9-7-9-7-9/10-10/12-10--| Repeat
D----------------------------|
A----------------------------|
E----------------------------|

solo
E---------------------|
B---------------------|
G-------7-9-7--9-11-9-| repeat 3 times
D-7-9-7---------------|
A---------------------|
E---------------------|
then

E-----------------------------------------------|
B-----------------------------------------------|
G-----------------------------------------------|
D-7-9-11-9-7-9-11-9--9-9--9-9--9-9--9-9--9-9-/2-|
A-----------------------------------------------|
E-----------------------------------------------|
Suggest correction
Give kudos to tab author, rate the tab!
1 2 3 4 5
comments
print report bad tab
1 comment total.
0 reply
rockcan156 268 Sep 05, 2011 12:57 PM

I prefer to add hummer on and pull off on during this song.

It sound a little bit better for me!

solo
E---------------------|
B---------------------|
G-------7h9p7--9h11p9-| repeat 3 times
D-7h9p7---------------|
A---------------------|
E---------------------|
then

E-----------------------------------------------|
B-----------------------------------------------|
G-----------------------------------------------|
D-7-9h11p9-7-9h11p9--9-9--9-9--9-9--9-9--9-9-/2-|
A-----------------------------------------------|
E-----------------------------------------------|

guest
You may want to rate the tab now too:
select rating
Wanna post a correction for this tab? Suggest correction