Oops, an error
Loading. Please wait.

Modern Way Bass Tab

version 2
version 2

Whole song

Interactive

5,229 views 6 this week
1 commentread comment
1 2 3 4 5
excellent!
x 7
add to favorites
launch autoscroll
font size
0
reset
guitar tuner
Autoscroll
slow
fast
+/-
esc
set tempo
stop
Help us to improve Ultimate-Guitar.com Take our survey!
×
Contributor
Difficulty
novice
intro/verse
G|-----------------------|
D|-----------------------|
A|-11----14---7----11----|
E|9----12----5----9------|x6 x4 for the verse

bridge

G|---------------------------------------------|
D|---------------------------------------------|
A|---99-99-99---77-77--77---99-99-99---77-77-77|
E|777--7--7--555--5--5---777--7--7--555--5--5--|

chorus

G|------------------------------------------------------------------|
D|------------------------------------------------------------------|
A|------------------------------------------------------------------|
E|55-5555-55-99-9999-99-55-5555-55-99-9999-99-55-5555-55-99-9999-99-|


G|-----------------------------|
D|-----------------------------|
A|--------99-99-99----99-99-99-|
E|-777-777--7--7---777--7--7---|

Order

Intro/verse
Bridge
verse
Bridge
Chorus
Into/verse
Bridge
Chorusx2
Intro/Verse
comments
print report bad tab
1 comment total.
0 reply
xxxxChrisTxxxx 6,165 wrote on September 14 2013, 06:23 am

There's something going on in the last two repeats in the verses before it goes into the bridge - think it's doubled up like this...

G|-----------------------------|
D|-----------------------------|
A|-11-11---14--14--7-7--11-11--|
E|9--9---12--12---5-5--9--9----|

G|----------------------------------------|
D|----------------------------------------|
A|-11-11---14--14--7-7--11-11-11-11-11-11-|
E|9--9---12--12---5-5--9--9---------------|


The chorus needs a B in there...

E|55-5555-55-7-99-9999-99--7-55- etc....

and finishes
G|-------------------------|
D|----99-7--9-----99-7--9--|
A|-------------------------|
E|-77----------77----------|

I want to post or [tab]
guest
You may want to rate the tab now too:
select rating
Please do not post tabs as comments. Select "correction" instead!