Oops, an error
Loading. Please wait.

Modern Way Bass Tab

version 4
version 4

Whole song

Interactive

447 views 9 this week
no commentswrite comment
1 2 3 4 5
please rate
add to favorites
launch autoscroll
font size
0
reset
guitar tuner
Autoscroll
slow
fast
+/-
esc
set tempo
stop
Help us to improve Ultimate-Guitar.com Take our survey!
×
Author
Difficulty
novice
Artist: kaiser chiefs
Song: modern way
Album: employment




intro
G|---------------------------------------------|
D|---------------------------------------------|
A|-----11----------14---------7------------11--|
E|-9--------/12----------/5-----------/9-------| X6

chorus 1
G|--------------------------------------------------|
D|--------------------------------------------------|
A|--9-99-9--99-9-9-99--7-77-7--77-7-7--77-----------|
E|--------------------------------------------------| X2

Verse
G|---------------------------------------------|
D|---------------------------------------------|
A|-----11----------14---------7------------11--|
E|-9--------/12----------/5-----------/9-------| X4

chorus 1
G|--------------------------------------------------|
D|--------------------------------------------------|
A|--9-99-9--99-9-9-99--7-77-7--77-7-7--77-----------|
E|--------------------------------------------------| X2

Chorus 2
G|---------------------------------------|
D|---------------------------------------|
A|-7-77-7-77-77-7-7\4-44--44-4-44-4-44---|
E|---------------------------------------| X3

Chorus 3
G|---------------------------------------------|
D|----------------------999-777-99-------------|
A|-99-9-9-99-9-9-9-9-99------------------------|
E|---------------------------------------------|

Verse
G|---------------------------------------------|
D|---------------------------------------------|
A|-----11----------14---------7------------11--|
E|-9--------/12----------/5-----------/9-------| X4

chorus 1
G|--------------------------------------------------|
D|--------------------------------------------------|
A|--9-99-9--99-9-9-99--7-77-7--77-7-7--77-----------|
E|--------------------------------------------------| X2

Chorus 2
G|---------------------------------------|
D|---------------------------------------|
A|-7-77-7-77-77-7-7\4-44--44-4-44-4-44---|
E|---------------------------------------| X3

Chorus 3
G|---------------------------------------------|
D|----------------------999-777-99-------------|
A|-99-9-9-99-9-9-9-9-99------------------------|
E|---------------------------------------------|

Outro
G|---------------------------------------------|
D|---------------------------------------------|
A|-----11----------14---------7------------11--|
E|-9--------/12----------/5-----------/9-------| X3

Then
G|---------------------------------------------|
D|---------------------------------------------|
A|-----11----------14---------7----------------|
E|-9--------/12----------/5-----------/9~------| 
Suggest correction
Give kudos to tab author, rate the tab!
1 2 3 4 5
comments
print report bad tab
guest
You may want to rate the tab now too:
select rating
Wanna post a correction for this tab? Suggest correction