Oops, an error
Loading. Please wait.

My Kind Of Guy Tab

version 1
version 1

Whole song

1,199 views 1 this week
1 commentread comment
1 2 3 4 5
please rate
add to favorites
launch autoscroll
font size
0
reset
how to read this tab
guitar tuner
Autoscroll
slow
fast
+/-
esc
set tempo
stop
Help us to improve Ultimate-Guitar.com Take our survey!
×
Author
Tabbers playing skills
intermediate +
My Kind Of Guy Tab by Kaiser Chiefs
tabbed by souodragon
not 100% sure of this one, but here you go anyway
please rate!

INTRO

E|----------------------------------------------------------------------|
B|----------------------------------------------------------------------|
G|---13-16---12-13---13-16--12-13---13-16---12-13--13-16-12-------------|
D|-12------11------12-----11------12------11-----12---------------------|
A|----------------------------------------------------------------------|
E|----------------------------------------------------------------------|

Verse
E|----------------------------------------------------------------------|
B|----------------------------------------------------------------------|
G|----------------7-(X8)------------------------------------------------|
D|--5-(X8)-7-(X8)-7-----------------------------------------------------|
A|--5------7------5-----------------------------------------------------|
E|--3------5------------------------------------------------------------| X2

Bridge
E|----------------------------------------------------------------------|
B|----------------------------------------------------------------------|
G|----------------------------------------------------------------------|
D|----------------------------------------------------------------------|
A|---------------------------7--5-7--5-7--5-7--5-7----------------------|
E|--7-5--7-5--7-5--7-5-7-8-10---------------------10-8-7-5--------------| X2

Chorus
E|----------------------------------------------------------------------|
B|----------------------------------------------------------------------|
G|-----------------9-(X4)-----------------------------------------------|
D|--10-(X4)-7-(X4)-9----------------------------------------------------|
A|--10------7------7----------------------------------------------------|
E|--8-------5-----------------------------------------------------------| X2

soupdragon
Suggest correction
Give kudos to tab author, rate the tab!
1 2 3 4 5
comments
print report bad tab
1 comment total.
0 reply
Indie23 31 wrote on December 28 2007, 11:30 pm

dude this is kinda shit

guest
You may want to rate the tab now too:
select rating
Please do not post tabs as comments. Select "correction" instead!