Oops, an error
Loading. Please wait.

Never Miss A Beat Bass Tab

version 4
version 4

Whole song

Interactive

964 views 1 this week
no commentswrite comment
1 2 3 4 5
excellent!
x 4
add to favorites
launch autoscroll
font size
0
reset
guitar tuner
Tab Pro tools
  • play this tab
  • loop segment
  • change instrument
  • show fretboard
  • metronome
Autoscroll
slow
fast
+/-
esc
set tempo
stop
Contributor
Difficulty
novice
================================================================================
            "Never Miss a Beat" by Kaiser Chiefs Bass Tab  - Bbforky
================================================================================

Tuning: EADG

NOTES: My first tab, my apologize if my format's bad. On the other hand, I do not
take full credit for I have just modified some other tabs. Still not 100
percent correct, but pretty accurate. I hope you enjoy!

Intro/Breakdown:

G|--12-12-12-12-12-12-12-12---0-0---0-12-0-|
D|-----------------------------------------|
A|-----------------------------------------| x3
E|-----------------------------------------|

G|--12-12-12-12-12-12-12-12-0-0-0-0-0-0-0-|
D|----------------------------------------|
A|----------------------------------------|
E|----------------------------------------|

G|0-0-0-0-0-0-0-0-0-0-0-0-0-0-0-0-|
D|--------------------------------|
A|--------------------------------| x2
E|--------------------------------|

Verse 1:

G|0-0-0-0-0-0-0-0-0-0-0-0-0-0-0-0-|
D|--------------------------------|
A|--------------------------------| x4
E|--------------------------------|

Pre-Chorus 1:

G|3---3---------------------------|
D|--------1-1-1---------1---1-1---|
A|--------------3---3-3-----------|
E|--------------------------------|

G|0-0-0-0-0-0-0-0-0-0-0-0-0-0-0-0-|
D|--------------------------------|
A|--------------------------------|
E|--------------------------------|

G|3---3---------------------------|
D|--------1-1-1---------1---1-1---|
A|--------------3---3-3-----------|
E|--------------------------------|

G|0-0-0-0-0-0-0-0-0-0-0-0-0-0-0-0-|
D|--------------------------------|
A|--------------------------------|
E|--------------------------------|

Verse 2:

G|0-0-0-0-0-0-0-0-0-0-0-0-0-0-0-0-|
D|--------------------------------|
A|--------------------------------| x4
E|--------------------------------|

Pre-Chorus 2:

G|3---3---------------------------|
D|--------1-1-1---------1---1-1---|
A|--------------3---3-3-----------|
E|--------------------------------|

G|0-0-0-0-0-0-0-0-0-0-0-0-0-0-0-0-|
D|--------------------------------|
A|--------------------------------|
E|--------------------------------|

G|3---3---------------------------|
D|--------1-1-1---------1---1-1---|
A|--------------3---3-3-----------|
E|--------------------------------|

G|0-0-0-0-0-0-0-0-0-0-0-0-0-0-0-0-0-0-0-0-0-0-0-0-|
D|------------------------------------------------|
A|------------------------------------------------|
E|------------------------------------------------|

Chorus 1:

G|--------------------------------|
D|3-3-3-3-3-3-3-3-3-3-3-3-3-3-3-3-|
A|--------------------------------|
E|--------------------------------|

G|--------------------------------|
D|--------------------------------|
A|4-4-4-4-4-4-4-4-6-6-6-6-6-6-6-6-|
E|--------------------------------|

G|--------------------------------|
D|3---3-----3---3---3-3-3-3-3-3-3-|
A|--------------------------------|
E|--------------------------------|

G|--------------------------------|
D|--------------------------------|
A|4-4-4-4-4-4-4-4-6-6-6-6-6-6-6-6-|
E|--------------------------------|

G|--------------------------------|
D|3-3-3-3-3---3-3-3-3-3---3-3-3-3-|
A|--------------------------------|
E|--------------------------------|

G|--------------------------------|
D|3-3-3-3-3---3-3-3-3-3-----------|
A|--------------------------------|
E|--------------------------------|

Breakdown 2:

G|--12-12-12-12-12-12-12-12---0-0---0-12-0-|
D|-----------------------------------------|
A|-----------------------------------------| x4
E|-----------------------------------------|

Verse 3:

G|0-0-0-0-0-0-0-0-0-0-0-0-0-0-0-0-|
D|--------------------------------|
A|--------------------------------| x4
E|--------------------------------|

Pre-Chorus 3:

G|3---3---------------------------|
D|--------1-1-1---------1---1-1---|
A|--------------3---3-3-----------|
E|--------------------------------|

G|0-0-0-0-0-0-0-0-0-0-0-0-0-0-0-0-|
D|--------------------------------|
A|--------------------------------|
E|--------------------------------|

G|3---3---------------------------|
D|--------1-1-1---------1---1-1---|
A|--------------3---3-3-----------|
E|--------------------------------|

G|0-0-0-0-0-0-0-0-0-0-0-0-0-0-0-0-0-0-0-0-0-0-0-0-|
D|------------------------------------------------|
A|------------------------------------------------|
E|------------------------------------------------|

Chorus 2:

G|--------------------------------|
D|3-3-3-3-3-3-3-3-3-3-3-3-3-3-3-3-|
A|--------------------------------|
E|--------------------------------|

G|--------------------------------|
D|--------------------------------|
A|4-4-4-4-4-4-4-4-6-6-6-6-6-6-6-6-|
E|--------------------------------|

G|--------------------------------|
D|3-3-3-3-3-3-3-3-3-3-3-3-3-3-3-3-|
A|--------------------------------|
E|--------------------------------|

G|--------------------------------|
D|--------------------------------|
A|4-4-4-4-4-4-4-4-6-6-6-6-6-6-6-6-|
E|--------------------------------|

G|--------------------------------|
D|3-3-3-3-3---3-3-3-3-3---3-3-3-3-|
A|--------------------------------|
E|--------------------------------|

G|--------------------------------|
D|3-3-3-3-3---3-3-3-3-3-----------|
A|--------------------------------|
E|--------------------------------|

Breakdown 3:

G|--12-12-12-12-12-12-12-12---0-0---0-12-0-|
D|-----------------------------------------|
A|-----------------------------------------| x4
E|-----------------------------------------|

Solo:

G|-----------------------------------------------------------------------------|
D|8---8---8---8---10---10---10---10---12---12---12---12---12h13p12---10--------|
A|------------------------------------------------------------------------13---|
E|-----------------------------------------------------------------------------|
*This part should be played the same tempo. It is expanded for timing the hammer-on.

G|------------------------12-12-12-12-12-12-12-12-|
D|------------------10-12-------------------------|
A|10-10-10-10-10-10-------------------------------|
E|------------------------------------------------|

G|12-12-12-12-12-12-12-12-12-12-12-12-12-12-12-12-12-12-12-12-12-12-12-12-|
D|------------------------------------------------------------------------|
A|------------------------------------------------------------------------|
E|------------------------------------------------------------------------|

Chorus 3:

G|--------------------------------|
D|3-3-3-3-3-3-3-3-3-3-3-3-3-3-3-3-|
A|--------------------------------|
E|--------------------------------|

G|--------------------------------|
D|--------------------------------|
A|4-4-4-4-4-4-4-4-6-6-6-6-6-6-6-6-|
E|--------------------------------|

G|--------------------------------|
D|3-3-3-3-3-3-3-3-3-3-3-3-3-3-3-3-|
A|--------------------------------|
E|--------------------------------|

G|--------------------------------|
D|--------------------------------|
A|4-4-4-4-4-4-4-4-6-6-6-6-6-6-6-6-|
E|--------------------------------|

G|--------------------------------|
D|3-3-3-3-3---3-3-3-3-3---3-3-3-3-|
A|--------------------------------|
E|--------------------------------|

G|--------------------------------|
D|3-3-3-3-3---3-3-3-3-3-----------|
A|--------------------------------|
E|--------------------------------|

Very fun song to play. Hope this helps!
comments
print report bad tab
I want to post or [tab]
guest
You may want to rate the tab now too:
select rating
Please do not post tabs as comments. Select "correction" instead!