Oops, an error
Loading. Please wait.

Oh My God Bass Tab

version 2
version 2

Whole song

Interactive

7,506 views 12 this week
3 commentsread comments
1 2 3 4 5
excellent!
x 8
add to favorites
launch autoscroll
font size
0
reset
guitar tuner
Tab Pro tools
  • play this tab
  • loop segment
  • change instrument
  • show fretboard
  • metronome
×
Best way to learn
"Oh My God"
Autoscroll
slow
fast
+/-
esc
set tempo
stop
Id Advise that you us a pick playing this song because it makes the top string 
sound more like in the song. 

Listen to song for timing

Standard Tuning (EADG)
Legend:
h= hammer on
p= pull off
/= slide up
\= slide down

Intro

G:---------------------------------------|
D:------------------------------------3--|
A:--55--5-5-3p2-----2p3--------2--3h5----|  X2
E:--------------33------3--1-3-----------|

G:------------5------------------------------|
D:-------3/7-----7p5----------------------3--|
A:--55-------------------2p3-------2--3h5----|  
E:-------------------33------3-1-3-----------|

G:---------------------------------------|
D:------------------------------------3--|
A:--55--5-5-3p2-----2p3--------2--3h5----|
E:--------------33------3--1-3-----------|

Verse

G:-----------------------------|
D:--------------------------3--|
A:--55--555-3p2------------5---|
E:--------------33----00-3-----|

G:------------------------------------|
D:------------------------------------|
A:--55--5-5-3p2-----2p3-----------2---|  
E:--------------33------3--111--3---3-|

G:------------7-------5-------3--------|
D:----5-3-------7-------5-------3------|
A:--------3-5-----5-3-----3-1----------|
E:--3-----------------------------1-3--|

G:----------7-------5-------3--------3-------3-------3---5--|
D:--5-3-------7-------5-------3--------3-------3------------|
A:------3-5-----5-3-----3-1-----1-1------1-1-----1-1---3----|
E:----------------------------------------------------------|

G:---------------------------------------|
D:------------------------------------3--|
A:--55--5-5-3p2-----2p3--------2--3h5----|
E:--------------33------3--1-3-----------|

G:------------------------------------|
D:------------------------------------|
A:--55--5-5-3p2-----2p3-----------2---|  
E:--------------33------3--111--3---3-|

G:------------7-------5-------3--------|
D:----5-3-------7-------5-------3------|
A:--------3-5-----5-3-----3-1----------|
E:--3-----------------------------1-3--|

G:----------7-------5-------3--------3-------3-------3---5--|
D:--5-3-------7-------5-------3--------3-------3------------|
A:------3-5-----5-3-----3-1-----1-1------1-1-----1-1---3----|
E:----------------------------------------------------------|

Chorus

G:------------------------------------------------|
D:------------------------------------------------|
A:--5-5--xx-xx---5-5--xx-xx---5-5--xx-xx--11--33--| X 4
E:------------------------------------------------|

Verse 2

G:---------------------------------------|
D:------------------------------------3--|
A:--55--5-5-3p2-----2p3--------2--3h5----|
E:--------------33------3--1-3-----------|

G:------------------------------------|
D:------------------------------------|
A:--55--5-5-3p2-----2p3-----------2---|  
E:--------------33------3--111--3---3-|

G:------------7-------5-------3--------|
D:----5-3-------7-------5-------3------|
A:--------3-5-----5-3-----3-1----------|
E:--3-----------------------------1-3--|

G:----------7-------5-------3--------3-------3-------3---5--|
D:--5-3-------7-------5-------3--------3-------3------------|
A:------3-5-----5-3-----3-1-----1-1------1-1-----1-1---3----|
E:----------------------------------------------------------|

Chorus X4

Guitar Solo

G:------------7-------5-------3--------|
D:----5-3-------7-------5-------3------|
A:--------3-5-----5-3-----3-1----------| X 5
E:--3-----------------------------1-3--|

G:--3--------|       G:--3---5--|
D:----3------|       D:---------|
A:------1-1--| X 10  A:----3----|
E:-----------|       E:---------|

Chorus X5

End

G:-----|
D:-----|
A:--5--|
E:-----|

Enjoy
comments
print report bad tab
3 comments total.
0 reply
Joel B. wrote on June 21 2009, 03:30 pm

This is perfect!
Nice tab ;)

0 reply
tomboley420 wrote on September 7 2015, 03:44 pm, edited at 04:12 pm

Close but needs a little more fine tuning. This was my favourite song for about a year after it came out and I've decided to get learn it properly. The first part goes like this:

G:-----------------------------------------|
D:---------------------------------------3-|
A:--5-55---5---------------------2-2-3-5---|
E:-----------8-7/3-33-6/0-0-0-1-3-----------|

It plays that twice (although on the second bit, there's a couple more D notes played). Now, time to work out the next bits :s

0 reply
tomboley420 wrote on September 7 2015, 04:13 pm

Also note this is the same for the verse

I want to post or [tab]
guest
You may want to rate the tab now too:
select rating
Please do not post tabs as comments. Select "correction" instead!