Oops, an error
Loading. Please wait.

Oh My God Tab

version 4
version 4

Whole song

Interactive

904 views 1 this week
no commentswrite comment
1 2 3 4 5
please rate
add to favorites
launch autoscroll
font size
0
reset
how to read this tab
guitar tuner
Tab Pro tools
  • play this tab
  • loop segment
  • change instrument
  • show fretboard
  • metronome
Autoscroll
slow
fast
+/-
esc
set tempo
stop
Contributor
Difficulty
novice
---------------------------------------------------------------------------
                       OH MY GOD - Kaiser chiefs
---------------------------------------------------------------------------

my e-mail: timvanacolyen@hotmail.com

verse
      Dm   Dm   G    G    Dm   Dm   G    G
e|----5----5----3----3----5----5----3----3--|
B|----6----6----3----3----6----6----3----3--|
G|----7----7----4----4----7----7----4----4--|
D|----7----7----5----5----7----7----5----5--|
A|----5----5----5----5----5----5----5----5--|
E|----x----x----3----3----x----x----3----3--|

bridge
    G    Dm   C    A#   G    Dm   C    A#
e|--3----5----8----6----3----5----8----6----------------------------------|
B|--3----6----8----6----3----6----8----6----------------------------------|
G|--4----7----9----7----4----7----9----7----------------------------------|
D|--5----7----10---8----5----7----10---8-8-8-8-8-8-8-8-8-8-8-8-8-8-8-8-8--|
A|--5----5----10---8----5----5----10---8-8-8-8-8-8-8-8-8-8-8-8-8-8-8-8-8--|
E|--3----x----8----6----3----x----8----6-6-6-6-6-6-6-6-6-6-6-6-6-6-6-6-6--|

verse
      Dm   Dm   G    G    Dm   Dm   G    G
e|----5----5----3----3----5----5----3----3--|
B|----6----6----3----3----6----6----3----3--|
G|----7----7----4----4----7----7----4----4--|
D|----7----7----5----5----7----7----5----5--|
A|----5----5----5----5----5----5----5----5--|
E|----x----x----3----3----x----x----3----3--|

bridge
    G    Dm   C    A#   G    Dm   C    A#
e|--3----5----8----6----3----5----8----6----------------------------------|
B|--3----6----8----6----3----6----8----6----------------------------------|
G|--4----7----9----7----4----7----9----7----------------------------------|
D|--5----7----10---8----5----7----10---8-8-8-8-8-8-8-8-8-8-8-8-8-8-8-8-8--|
A|--5----5----10---8----5----5----10---8-8-8-8-8-8-8-8-8-8-8-8-8-8-8-8-8--|
E|--3----x----8----6----3----x----8----6-6-6-6-6-6-6-6-6-6-6-6-6-6-6-6-6--|

chorus
    Dm             Dm             Dm             A#   C
e|--5--5-5-5--x-x--5--5-5-5--x-x--5--5-5-5--x-x--6----8----|
B|--6--6-6-6--x-x--6--6-6-6--x-x--6--6-6-6--x-x--6----8----|
G|--7--7-7-7--x-x--7--7-7-7--x-x--7--7-7-7--x-x--7----9----|
D|--7--7-7-7--x-x--7--7-7-7--x-x--7--7-7-7--x-x--8----10---|  4x
A|--5--5-5-5--x-x--5--5-5-5--x-x--5--5-5-5--x-x--8----10---|
E|--x--x-x-x--x-x--x--x-x-x--x-x--x--x-x-x--x-x--6----8----|

verse
      Dm   Dm   G    G    Dm   Dm   G    G
e|----5----5----3----3----5----5----3----3--|
B|----6----6----3----3----6----6----3----3--|
G|----7----7----4----4----7----7----4----4--|
D|----7----7----5----5----7----7----5----5--|
A|----5----5----5----5----5----5----5----5--|
E|----x----x----3----3----x----x----3----3--|

bridge
    G    Dm   C    A#   G    Dm   C    A#
e|--3----5----8----6----3----5----8----6----------------------------------|
B|--3----6----8----6----3----6----8----6----------------------------------|
G|--4----7----9----7----4----7----9----7----------------------------------|
D|--5----7----10---8----5----7----10---8-8-8-8-8-8-8-8-8-8-8-8-8-8-8-8-8--|
A|--5----5----10---8----5----5----10---8-8-8-8-8-8-8-8-8-8-8-8-8-8-8-8-8--|
E|--3----x----8----6----3----x----8----6-6-6-6-6-6-6-6-6-6-6-6-6-6-6-6-6--|

chorus
    Dm             Dm             Dm             A#   C
e|--5--5-5-5--x-x--5--5-5-5--x-x--5--5-5-5--x-x--6----8----|
B|--6--6-6-6--x-x--6--6-6-6--x-x--6--6-6-6--x-x--6----8----|
G|--7--7-7-7--x-x--7--7-7-7--x-x--7--7-7-7--x-x--7----9----|
D|--7--7-7-7--x-x--7--7-7-7--x-x--7--7-7-7--x-x--8----10---|  4x
A|--5--5-5-5--x-x--5--5-5-5--x-x--5--5-5-5--x-x--8----10---|
E|--x--x-x-x--x-x--x--x-x-x--x-x--x--x-x-x--x-x--6----8----|

Solo
e|-------------------------------------------------------------|
B|--6-------6-------------------6-------6----------------------|
G|----5-7h----5-7h-7/9-9/10-10----5-7h----5-7h-7/9-9/10-10/12--|
D|-------------------------------------------------------------|  2x
A|-------------------------------------------------------------|
E|-------------------------------------------------------------|

e|--------------------------------------------------------------------|
B|--------------------------------------------------------17/18-18/19-|
G|--12/13-13/14-14/15-15/16-16/17-17/18-18/19-19/20-20/21-------------|
D|--------------------------------------------------------------------|
A|--------------------------------------------------------------------|
E|--------------------------------------------------------------------|

-------------17/18-18/19-19/20-20/21-21--|
-19/20-20/21-----------------------------|
-----------------------------------------|
-----------------------------------------|
-----------------------------------------|
-----------------------------------------|

chorus
    Dm             Dm             Dm             A#   C
e|--5--5-5-5--x-x--5--5-5-5--x-x--5--5-5-5--x-x--6----8----|
B|--6--6-6-6--x-x--6--6-6-6--x-x--6--6-6-6--x-x--6----8----|
G|--7--7-7-7--x-x--7--7-7-7--x-x--7--7-7-7--x-x--7----9----|
D|--7--7-7-7--x-x--7--7-7-7--x-x--7--7-7-7--x-x--8----10---|  4x
A|--5--5-5-5--x-x--5--5-5-5--x-x--5--5-5-5--x-x--8----10---|
E|--x--x-x-x--x-x--x--x-x-x--x-x--x--x-x-x--x-x--6----8----|
comments
We did not receive enough feedback on this tab! Please rate:
print report bad tab
1 2 3 4 5
I want to post or [tab]
guest
You may want to rate the tab now too:
select rating
Please do not post tabs as comments. Select "correction" instead!