Oops, an error
Loading. Please wait.

Ruby Tab

version 1
version 1
7,302 views 9 this week
3 commentsread comments
1 2 3 4 5
please rate
add to favorites
launch autoscroll
font size
0
reset
how to read this tab
guitar tuner
Tab Pro tools
  • play this tab
  • loop segment
  • change instrument
  • show fretboard
  • metronome
×
Best way to learn
"Ruby"
Autoscroll
slow
fast
+/-
esc
set tempo
stop
Contributor
Tuning
D# G# C# F# A# D#
Ok. I fixed the tuning issue. The tuning is a half-step down. Now it's correct.

e|-------------------------------------------------------------------------------|
B|-------------------------------------------------------------------------------|
G|-------------------------------------------------------------------------------|
D|-------------------------------------------------------------------------------|
A|-------------------------------------------------------------------------------|
E|-5-4-4--5-4-4--5-4-4--5-4-4--7-7-10--2-2-5--5-4-4--5-4-4--7-7-10--2-2-5--12-12-|

e|------------------------------------------------------------------------------|
B|------------------------------------------------------------------------------|
G|------------------------------------------------------------------------------|
D|------------------------------------------------------------------------------|
A|------------------------------------------------------------------------------|
E|-10-10-9-9-7-7--7-7-10--2-2-5--5-4-4--5-4-4--7-7-10--2-2-5--12-12-10-10-9-9-7-|

e|-----------------|
B|-----------------|
G|-----------------|
D|-----------------|
A|-----------------|
E|-7-5-5-4-4-2-2-0-|
comments
We did not receive enough feedback on this tab! Please rate:
print report bad tab
1 2 3 4 5
3 comments total.
0 reply
Ganondorf2 wrote on November 9 2010, 07:57 pm

Sorry guys. My guitar was tuned to D flat instead of E. Don't blame me, blame 1900s Washburns.
-Ganondorf2

0 reply
Ganondorf2 wrote on November 9 2010, 07:58 pm

Ack! D sharp, not flat. Sorry again.
-Ganondorf2

0 reply
Naopelu wrote on April 10 2011, 05:47 pm

Hmmm, actually the song is played in standard tuning, so it's not necesary to mess with re-tuning the guitar. But, transposing the notes, the tab is right, excepting for the |--5-4-4--| thing, which actually is.

|----------|
|--9p8--8--|
|--8p---8--|
|-10p8--8--|
|----------|
|----------|

I want to post or [tab]
guest
You may want to rate the tab now too:
select rating
Please do not post tabs as comments. Select "correction" instead!