Oops, an error
Loading. Please wait.

Ruby Tab

version 2
version 2
28,325 views 3 this week
2 commentsread comments
1 2 3 4 5
accurate
x 4
add to favorites
launch autoscroll
font size
0
reset
how to read this tab
guitar tuner
Autoscroll
slow
fast
+/-
esc
set tempo
stop
Help us to improve Ultimate-Guitar.com Take our survey!
×
Author
Difficulty
intermediate
Ruby-Kaiser Chiefs

Intro

(Overdriven guitar)

Riff A

e-6-x-6-x--|
B-8-x-8-x--|
G-8-x-8-x--|
D-8-x-8-x--|
A---x---x--|
E---x---x--| x2

Riff B

e---------------------------------|
B---------------------------------|
G---------------------------------|
D---------------------------------|
A-----4--------6-6--4-4--6-6--4-4-|
E-6-6----1-1-4--------------------| 

Riff C

e-------------------------------|
B-------------------------------|
G-------------------------------|
D-------------------------------|
A-----4-------6-6--4-4--3-3--1--|
E-6-6---1-1-4-------------------|

Riff D

e------------------|
B------------------|
G------------------|
D------------------|
A------------------|
E-6-6-4-4-3-3-1-1--| x1

Verse

e-1----1----x----x--|
B-2----1----4----6--|
G-3----1----5----7--|
D-3----3----6----8--|
A-x----3----6----8--|
E-x----x----x----x--|

Gtr 2 (Fill)

e--------------|
B--------------|
G--------------|
D-8--10--6--8--|
A--------------|
E--------------|

Chorus

e-----------------------------|
B-----------------------------|
G-----------------------------|
D-----------------------------|
A-----4-------6-6--4--6-6--4--|
E-6-6---1-1-4-----------------|

e--------------------------------|
B--------------------------------|
G--------------------------------|
D--------------------------------|
A-----4--------6-6--4-4--3-3--1--|
E-6-6----1-1-4-------------------|

Bridge

F   C#  Bb  B  C x2

Solo

e------------------------------------------|
B------------------------------------------|
G------------------------------------------|
D-10p8-10p8-10p8--10--6--8--8/10--8--6--3--|
A------------------------------------------|
E------------------------------------------|

e-------------------------------------------------|
B-------------------------------------------------|
G-------------------------------------------------|
D-6--8--10--8--6--3--6--8--8/10--8--10--8--9--10--|
A-------------------------------------------------|
E-------------------------------------------------|

Order

Intro:
Riff A 
Riff B
Riff C
Riff B
Riff C
Riff D
Verse
Chorus
Verse
Chorus
Bridge
Solo
Chorus x2
Suggest correction
What's this?
You can suggest a correction to this tab. Community and Mods will review your correction and vote to approve or reject it.
comments
print report bad tab
2 comments total.
0 reply
jamiew123 15 wrote on March 3 2008, 09:45 pm

good tab but i think the solo is:
e------------------------------------------|
B------------------------------------------|
G------------------------------------------|
D-10p8h10-10p8h10--6--8--10--8--6--3~------|
A------------------------------------------|
E------------------------------------------|

e-------------------------------------------------|
B-------------------------------------------------|
G-------------------------------------------------|
D-6--8--10--8--6--3~--6--8--10--8-88--9-----------|
A-------------------------------------------------|
E-------------------------------------------------|

e------------------------------------------|
B------------------------------------------|
G------------------------------------------|
D-10p8h10-10p8h10--6--8--10--8--6--3~------|
A------------------------------------------|
E------------------------------------------|

e-------------------------------------------------|
B-------------------------------------------------|
G-------------------------------------------------|
D-6--8--10--8--6--3~--6--8--10--8-88--9-99-10x12--|
A-------------------------------------------------|
E-------------------------------------------------|

but good tab other wise but it would of helped more if u tabbed the bridge but w.e.
-jamie w

0 reply
username4 25 wrote on March 20 2008, 01:38 pm

it is relly hard

guest
You may want to rate the tab now too:
select rating
Please do not post tabs as comments. Select "correction" instead!