Oops, an error
Loading. Please wait.

Ruby Bass

version 3
version 3
4,059 views 21 this week
no commentswrite comment
1 2 3 4 5
1 last vote to show rating
add to favorites
launch autoscroll
font size
0
reset
guitar tuner
backing track
0:00
0:00
Autoscroll
slow
fast
+/-
esc
set tempo
stop
I guarantee nothing!

I've tabbed this song not from great study of the Chiefs but to make it straightforward
play without losing the rock vibe. The chorus in particular can be made simple with a
rhythmic thrumming. Maybe Simon Rix does fly up and down the neck playing elaborate 
(looks great!) but this is something I can remember...

Intro:							(Guitar only)
G|----------------|----------------|----------------|----------------|
D|----------------|1-1-1---1-1-1---|----------------|----------------|
A|1-1-4-----------|----------------|1--14-----------|6---4---3---1---|
E|--------1-1-4---|----------------|--------1--14---|----------------|

							(Guitar only)
G|----------------|----------------|----------------|-------------------|
D|----------------|1-1-1---1-1-1---|----------------|-------------------|
A|1-1-4-----------|----------------|1--14-----------|6---4---3---1------|
E|--------1-1-4---|----------------|--------1--14---|-------------------|


G|----------------|
D|------------1---|
A|----------------|
E|4---3---1-------|

Verse: same repeated shape in a rough X on 6 and 8. A# F C D# twice.

G|----------------|----------------|----------------|---------3---3--|
D|---------3---3--|--------5--5----|----------------|------4---4---4-|
A|------4---4---4-|88----6--6--6---|--------5--5----|-66-------------|
E|-66-------------|----------------|88----6--6--6---|----------------|


G|----------------|----------------|----------------|---------3---3--|
D|---------3---3--|--------5--5----|----------------|------4---4---4-|
A|------4---4---4-|88----6--6--6---|--------5--5----|-66-------------|
E|-66-------------|----------------|88----6--6--6---|----------------|


G|---------3---3--|
D|------4---4---4-|
A|----------------|
E|----------------|

Chorus:

G|----------------|----------------|----------------|----------------|
D|----------------|----------------|----------------|----------------|
A|-----888--666---|6---6---6-6-6-6-|----888-666-----|6---6---6-6-6-6-|
E|-666------------|----------------|-666------------|----------------|


GG|---------------|----------------|----------------|----------------|
D|----------------|----------------|----------------|----------------|
A|-----888--666---|-6---4---3---1--|----888-666-----|6---6---6-6-6-6-|
E|-666------------|----------------|-666------------|----------------|


Verse2: as before

Chorus2: as before

Bridge:

G|----------------|----------------|----------------|----------------|
D|----------------|----------------|----------------|----------------|
A|8---------------|4---------------|1---------------|6-------7-------|
E|----------------|----------------|----------------|----------------|


G|----------------|----------------|----------------|----------------|
D|----------------|----------------|----------------|----------------|
A|8---------------|4---------------|1---------------|6-------7-------|
E|----------------|----------------|----------------|----------------|


G|----------------|----------------|----------------|----------------|
D|----------------|----------------|----------------|----------------|
A|8---8-8-8---8-8-|4---4-4-4---4-4-|1---1-1-1---1-1-|6-6-6-6-7-7-7-7-|
E|----------------|----------------|----------------|----------------|


G|----------------|----------------|----------------|-------------------|
D|----------------|----------------|----------------|-------------------|
A|8---8-8-8---8-8-|4---4-4-4---4-4-|1---1-1-1---1-1-|6-6-6-6-7-7-7-7----|
E|----------------|----------------|----------------|-------------------|


G|----------------|----------------|
D|----------------|----------------|
A|8-8-8-8-8-8-8-8-|8-8-8-8-8-------|
E|----------------|----------------|

End Chorus: as before

G|----------------|
D|----------------|
A|8---------------|
E|----------------|
Suggest correction
Give kudos to tab author, rate the tab!
1 2 3 4 5
comments
print report bad tab
guest
You may want to rate the tab now too:
select rating
Wanna post a correction for this tab? Suggest correction