Oops, an error
Loading. Please wait.

Ruby Tab

version 4
version 4
198,545 views 345 this week
35 commentsread comments
1 2 3 4 5
excellent!
x 102
add to favorites
launch autoscroll
font size
0
reset
how to read this tab
guitar tuner
Tab Pro tools
  • play this tab
  • loop segment
  • change instrument
  • show fretboard
  • metronome
Autoscroll
slow
fast
+/-
esc
set tempo
stop
Contributor
Artist: Kaiser Chiefs
Track: Ruby
Album: Yours Truly, Angry Mob
Tabber: Woodshed



INTRO

e|-------------------------------------------------------------------------|
B|---9p8--8----9p8--8----9p8--8----9p8--8----------------------------------|
G|---8----8----8----8----8----8----8----8----------------------------------|
D|--10p8--8---10p8--8---10p8--8---10p8--8----------------------------------|
A|-------------------------------------------------------------------------|
E|-------------------------------------------------------------------------|



RIFF

e|-------------------------------------------------------------------------|
B|-------------------------------------------------------------------------|
G|-------------------------------------------------------------------------|
D|----------------------13-------------------------------------------------|
A|----------------------13-------------------------------------------------|
E|---6--6-9----1--1/4---11----6--6-9----1--1-4-11--11\9-9\8-8\6------------|

e|-------------------------------------------------------------------------|
B|-------------------------------------------------------------------------|
G|-------------------------------------------------------------------------|
D|----------------------13-------------------------------------------------|
A|----------------------13-------------------------------------------------|
E|---6--6-9----1--1/4---11----6--6-9----1--1-4-11--11\9-9\8-8\6-6\4-4\1----|


VERSE 1

       Bbm                 Fm
Let it never be said, that romance is dead

            Cm                 Eb
Cos there’s so little else occupying my head

         Bbm                       Fm
There is nothing I need except the function to breathe

        Cm                         Eb
But I’m not really fussed, doesn’t matter to me


CHORUS

                  Bbm   Fm    Eb
Ruby, Ruby, Ruby, Ruby

                     Bbm  Fm    Eb
Do ya, do ya, do ya, do ya

e|-------------------------------------------------------------------------|
B|-------------------------------------------------------------------------|
G|-------------------------------------------------------------------------|
D|-------------------------------------------------------------------------|
A|-------------------------------------------------------------------------|
E|-----------------------------6----9---1--4----11--11\9-9\8-8\6-----------|
Know what ya doing, doing to me?

e|-------------------------------------------------------------------------|
B|-------------------------------------------------------------------------|
G|-------------------------------------------------------------------------|
D|-------------------------------------------------------------------------|
A|-------------------------------------------------------------------------|
E|-----------------------------6----9---1--4----/11------------------------|
Ruby, Ruby, Ruby, Ruby


VERSE 2

       Bbm                   Fm
Due to lack of interest tomorrow is cancelled

        Cm                      Eb
e|--------------------------------------------4p3---4p3--------------------|
B|------------------------------------------------4-----4------------------|
G|-------------------------------------------------------------------------|
D|-------------------------------------------------------------------------|
A|-------------------------------------------------------------------------|
E|-------------------------------------------------------------------------|
Let the clocks be reset and the pendulums held

            Bbm                       Fm
Cos there’s nothing at all except the space in between

        Cm                         Eb
Finding out what you’re called and repeating your name


CHORUS

                  Bbm   Fm    Eb
Ruby, Ruby, Ruby, Ruby

                     Bbm  Fm    Eb
Do ya, do ya, do ya, do ya

e|-------------------------------------------------------------------------|
B|-------------------------------------------------------------------------|
G|-------------------------------------------------------------------------|
D|-------------------------------------------------------------------------|
A|-------------------------------------------------------------------------|
E|-----------------------------6----9---1--4----11--11\9-9\8-8\6-----------|
Know what ya doing, doing to me?

e|-------------------------------------------------------------------------|
B|-------------------------------------------------------------------------|
G|-------------------------------------------------------------------------|
D|-------------------------------------------------------------------------|
A|-------------------------------------------------------------------------|
E|-----------------------------6----9---1--4----/11----/12-----------------|
Ruby, Ruby, Ruby, Ruby


MIDDLE 8

Fm                                   C#
Could it be, could it be that you’re joking with me

        Bbm                       Ebm        E
e|-------------------------------------------------------------------------|
B|-------------------------------------------------------------------------|
G|------------------------------------13p12------15p13---------------------|
D|-------------------------------------------------------------------------|
A|-------------------------------------------------------------------------|
E|---------------------------------11---------12---------------------------|
And you don’t really see you with me

Fm                                   C#

Could it be, could it be that you’re joking with me

        Bbm                       Eb          E
e|-------------------------------------------------------------------------|
B|-------------------------------------------------------------------------|
G|------------------------------------13p12------15p13---------------------|
D|-------------------------------------------------------------------------|
A|-------------------------------------------------------------------------|
E|---------------------------------11---------12---------------------------|
And you don’t really see you with me


SOLO
    
    Fm                        C#
e|-------------------------------------------------------------------------|
B|-------------------------------------------------------------------------|
G|-------------------------------------------------------------------------|
D|---10p8-10--10p8-10----6-8--8/10-8\6-------------------------------------|
A|--------------------------------------8----------------------------------|
E|-------------------------------------------------------------------------|

          Bbm                       Eb     E       
e|-------------------------------------------------------------------------|
B|-------------------------------------------------------------------------|
G|-------------------------------------------------------------------------|
D|---6-8--8/10-8\6-------6--8--8/10-8--8-8-9-------------------------------|
A|-----------------8-------------------------------------------------------|
E|-------------------------------------------------------------------------|

    Fm                        C#
e|-------------------------------------------------------------------------|
B|-------------------------------------------------------------------------|
G|-------------------------------------------------------------------------|
D|---10p8-10--10p8-10----6-8--8/10-8\6-------------------------------------|
A|--------------------------------------8----------------------------------|
E|-------------------------------------------------------------------------|

          Bbm                        Eb     E       Fm
e|-------------------------------------------------------------------------|
B|-------------------------------------------------------------------------|
G|-------------------------------------------------------------------------|
D|---6-8--8/10-8\6--------6--8--8/10-8--8-8-9---9-9-10---------------------|
A|-----------------8-------------------------------------------------------|
E|-------------------------------------------------------------------------|


CHORUS

                  Bbm   Fm    Eb
Ruby, Ruby, Ruby, Ruby

                     Bbm  Fm    Eb
Do ya, do ya, do ya, do ya

e|-------------------------------------------------------------------------|
B|-------------------------------------------------------------------------|
G|-------------------------------------------------------------------------|
D|-------------------------------------------------------------------------|
A|-------------------------------------------------------------------------|
E|-----------------------------6----9---1--4----11--11\9-9\8-8\6-----------|
Know what ya doing, doing to me?

e|-------------------------------------------------------------------------|
B|-------------------------------------------------------------------------|
G|-------------------------------------------------------------------------|
D|-------------------------------------------------------------------------|
A|-------------------------------------------------------------------------|
E|-----------------------------6----9---1--4----11--11\9-9\8-8\6-----------|
Ruby, Ruby, Ruby, Ruby


e|-------------------------------------------------------------------------|
B|-------------------------------------------------------------------------|
G|-------------------------------------------------------------------------|
D|-----------------------------------------13------------------------------|
A|-----------------------------------------13------------------------------|
E|-------------------------6--6-9--1--1-4--11------------------------------|
Do ya, do ya, do ya, do ya



e|-------------------------------------------------------13----------------|
B|-------------------------------------------------------13----------------|
G|-------------------------------------------------------13----------------|
D|-----------------------------------------------13--14--15----------------|
A|-----------------------------------------------13--14--------------------|
E|-------------------------------6--6-9--1--1-4--11--12--------------------|
Know what ya doing, doing to me?

comments
print report bad tab
35 comments total. Showing first comments.
+3 reply
Bixy wrote on February 22 2007, 03:38 pm

I went to see the chiefs yesterday at the apollo and all the posistions seem to be correct in this tab... Top stuff

+1 reply
Woodshed wrote on February 23 2007, 07:02 am

Thanks Bixy. Good to know.

+2 reply
Rocker05 wrote on February 24 2007, 10:06 am

Great Tab man! Ive been waiting for this for ages!

I want to post or [tab]
guest
You may want to rate the tab now too:
select rating
Please do not post tabs as comments. Select "correction" instead!