Oops, an error
Loading. Please wait.

Ruby Bass Tab

version 5
version 5
4,610 views 6 this week
no commentswrite comment
1 2 3 4 5
accurate
x 3
add to favorites
launch autoscroll
font size
0
reset
guitar tuner
Tab Pro tools
  • play this tab
  • loop segment
  • change instrument
  • show fretboard
  • metronome
×
Best way to learn
"Ruby"
Autoscroll
slow
fast
+/-
esc
set tempo
stop
Contributor
First of all, the song: its brilliant :D !!!

After looking at the other tabs, i saw they weren't quite the 5***** they appeared 
to be, so i made one myself, and its about 99% correct with only a couple of 
chorus variations missing. hope you enjoy!

Ruby
Kaiser Chiefs
Yours Truly, Angry Mob

Guitar Intro
Bass comes in at 0:06
Chorus
G|------------------------|------------------------|
D|------------------------|------------------------|
A|-1--14--------666\-666\-|-1--14-------6-64-43-31-|
E|-------1--14------------|-------1--14------------|

G|------------------------|-----------------------------------|
D|------------------------|-----------------------------------|
A|-1--14--------666\-666\-|-1--14-------6-64-43-31-1----------|
E|-------1--14------------|-------1--14-------------4-43-31-13|

Verse
G|-------------5---------------3-------------------|
D|----------3-----3-1------3h5---5-3---------------|
A|-1----3-4-----------3--------------6-----4-6-4---|
E|---------------------------------------6-------4-|

G|------------------------------------------------|
D|--------1-3---5--3-1----5---3-------------------|
A|-1----4--------------3---------666-466--466-46\-|
E|---------------------------------------4---4----|

Chorus
G|----------------------------|--------------------------------|
D|----------------------------|-------------------3------------|
A|-111-4/888--3-666--4646-464-|-111-4/888-3-66666---6-3--------|
E|----------------------------|-------------------------6-4-6-4|

G|-------------------------|----------------------|
D|-------------------------|----------------------|
A|-1--14--------6-64-43-31-|-1--14-------66666666-|
E|-------1--14-------------|-------1--14----------|

Verse
G|-------------5---------------3-------------------|
D|----------3-----3-1------3h5---5-3---------------|
A|-1----3-4-----------3--------------6-----4-6-4---|
E|---------------------------------------6-------4-|

G|--------------3/5-8-5-------------------------------|
D|--------1-3----------------3h5--3-------------------|
A|-1----4---------------1-3----------666-466--466-46\-|
E|-------------------------------------------4---4----|

Chorus
G|----------------------------|--------------------------------|
D|----------------------------|-------------------3------------|
A|-111-4/888--3-666--4646-464-|-111-4/888-3-66666---6-3--------|
E|----------------------------|-------------------------6-4-6-4|

G|-------------------------|----------------------|
D|-------------------------|----------------------|
A|-1--14--------6-64-43-31-|-1--14-------66667777-|
E|-------1--14-------------|-------1--14----------|

Bridge
G|----------|----------|----------|----------|
D|----------|----------|----------|----------|
A|-8--------|-4--------|-1--------|-6---7----|
E|----------|----------|----------|----------|

G|----------|----------|----------|----------|
D|-------10/|----------|----------|----------|
A|-8--------|-4--------|-1--------|-6---7----|
E|----------|----------|----------|----------|

G|----------|----------|----------|----------|
D|----------|----------|----------|----------|
A|-88888888-|-44444444-|-11111111-|-66667777-|
E|----------|----------|----------|----------|

G|---------------------|
D|---------------------|
A|-88886h8888888-8-----|
E|--------------8------|

Chorus
G|----------------------------|--------------------------------|
D|----------------------------|-------------------3------------|
A|-111-4/888--3-666--4646-464-|-111-4/888-3-66666---6-3--------|
E|----------------------------|-------------------------6-4-6-4|

G|-------------------------|------------------------|
D|-------------------------|------------------------|
A|-1--14--------6-64-43-31-|-1--14-------6-64-43-31-|
E|-------1--14-------------|-------1--14------------|

G|-------------------------|----------------------|
D|-------------------------|----------------------|
A|-1--14--------6-64-43-31-|-1--14-------66667777-|
E|-------1--14-------------|-------1--14----------|

End On
G|----------|
D|----------|
A|-8--------|
E|----------|
comments
We did not receive enough feedback on this tab! Please rate:
print report bad tab
1 2 3 4 5
I want to post or [tab]
guest
You may want to rate the tab now too:
select rating
Please do not post tabs as comments. Select "correction" instead!