Oops, an error
Loading. Please wait.

Ruby Tab

version 5
version 5
33,583 views 12 this week
2 commentsread comments
1 2 3 4 5
accurate
x 6
add to favorites
launch autoscroll
font size
0
reset
how to read this tab
guitar tuner
Tab Pro tools
  • play this tab
  • loop segment
  • change instrument
  • show fretboard
  • metronome
×
Best way to learn
"Ruby"
Autoscroll
slow
fast
+/-
esc
set tempo
stop
Contributor
this is pretty simple but also pretty cool, sounds great live.

Intro - Crunchy distortion
Eb------------|
Bb--12-12--12-|
Gb--14-13--13-|
Db--14-14--14-|
Ab------------|
Eb------------| X4

Eb---------------------------------------------------------------|
Bb---------------------------------------------------------------|
Gb---------------------------------------------------------------|
Db---------------------------------------------------------------|
Ab--2-2-5-------s7-----2-2-5-------s7-7-5-5-4-4-2-2--------------|
Eb--------2-2-5--------------2-2-5-------------------------------|

Eb----------------------------------------------------------------|
Bb----------------------------------------------------------------|
Gb----------------------------------------------------------------|
Db----------------------------------------------------------------|
Ab--2-2-5-------s7-----2-2-5-------s7-7-5-5-4-4-2-2---------------|
Eb--------2-2-5--------------2-2-5------------------5-5-4-4-2-2-0-|

Verse 1 - Switch to clean sound
Eb--2---------2---------4---------7------------------------------|
Bb--3---------2---------5---------9------------------------------|
Gb--4---------2---------6---------9------------------------------|
Db--4---------4---------6---------9------------------------------|
Ab--2---------4---------4---------7------------------------------|
Eb------------2--------------------------------------------------|

Eb--2---------2---------4---------7------------------------------|
Bb--3---------2---------5---------9------------------------------|
Gb--4---------2---------6---------9------------------------------|
Db--4---------4---------6---------9------------------------------|
Ab--2---------4---------4---------7------------------------------|
Eb------------2--------------------------------------------------|

Chorus 1 - Back to distortion
Eb---------------------|
Bb---------------------|
Gb---------------------|
Db---------------------|
Ab--2-2-5-4---------s7-|
Eb----------2-2-5-4----| X2

Eb------------------------------------------------------|
Bb------------------------------------------------------|
Gb------------------------------------------------------|
Db------------------------------------------------------|
Ab--2-2-5-4---------s7-7-5-5-4-4-2-2-2-2-5-4---------s7-|
Eb----------2-2-5-4--------------------------2-2-5-4----|

Verse 2 - As verse 1 excpt with the following fill starting at the words 'let the clocks'
Eb------------------------------------------|
Bb------------------------------------------|
Gb----------------------14p13----14p13------|
Db--11-12s14------------------14------14----|
Ab------------------------------------------|
Eb------------------------------------------|

Chorus 2 - As chorus 1 except at the end add
Eb----------------|
Bb----------------|
Gb----------------|
Db----------------|
Ab--7-8-9---------|
Eb----------------|

Bridge gtr 1 - Clean Sound Again
Eb--9---------10--------7-----7-8--9--|
Bb--10--------10--------7-----9-10-10-|
Gb--11--------13--------7-----9-10-11-|
Db--11--------12--------9-----9-10-11-|
Ab--9---------12--------9-----7-8--9--|
Eb------------10--------7-------------| X2

gtr 2 - Crunchy distortion
Eb----------------------------------------|
Bb----------------------------------------|
Gb----------------------------14p13-16p14-|
Db----------------------------------------|
Ab----------------------------------------|
Eb----------------------------------------|

Solo gtr 1 - As bridge

gtr 2 - Crunchy distortion
Eb------------------------------------------------------------------------|
Bb------------------------------------------------------------------------|
Gb------------------------------------------------------------------------|
Db--11p9-11-11p9-11--s7-9-9s11-9-7----s7-9-9s11-9-7---7-9-9s11-9-9-9-10---|
Ab---------------------------------9----------------9---------------------|
Eb------------------------------------------------------------------------|

w/pitch shifter up 1 octave
Eb------------------------------------------------------------------------|
Bb------------------------------------------------------------------------|
Gb------------------------------------------------------------------------|
Db--11p9-11-11p9-11--s7-9-9s11-9-7----s7-9-9s11-9-7---7-9-9s11-9-9-9-10---|
Ab---------------------------------9----------------9---------------------|
Eb------------------------------------------------------------------------|

Final Chorus
Eb---------------------|
Bb---------------------|
Gb---------------------|
Db---------------------|
Ab--2-2-5-4---------s7-|
Eb----------2-2-5-4----| X2

Eb---------------------------------|
Bb---------------------------------|
Gb---------------------------------|
Db---------------------------------|
Ab--2-2-5-4---------s7-7-5-5-4-4-2-|
Eb----------2-2-5-4----------------| X2

Eb------------------------------------------|
Bb------------------------------------------|
Gb------------------------------------------|
Db------------------------------------------|
Ab--2-2-5-------s7-----2-2-5-------s7-7-8-9-|
Eb--------2-2-5--------------2-2-5----------|
comments
print report bad tab
2 comments total.
+1 reply
Huges wrote on March 29 2007, 02:00 pm

THis is the best ruby tab ever!!!!! its like all correct!! (i have never met dave......)

-2 reply
robster619 wrote on June 20 2008, 05:07 pm

man its not dat good! there is other ways of playin dis that is all on 1 string and sounds better den dis.

I want to post or [tab]
guest
You may want to rate the tab now too:
select rating
Please do not post tabs as comments. Select "correction" instead!