Oops, an error
Loading. Please wait.

Ruby Bass Tab

version 6
version 6
11,608 views 156 this week
no commentswrite comment
1 2 3 4 5
excellent!
x 10
add to favorites
launch autoscroll
font size
0
reset
guitar tuner
Tab Pro tools
  • play this tab
  • loop segment
  • change instrument
  • show fretboard
  • metronome
Autoscroll
slow
fast
+/-
esc
set tempo
stop
Contributor
It's differ from other tabs, but I think the most closest to original. I've made 
it myself by ear and watching covers on youtube.

Intro:                      
G|-------------------------|-----------------------|
D|-------------------------|-----------------------|
A|----4-------6-6-6--6-6-6-|-----4-------66-44-33-1|
E|6-6---1-1-4--------------|-6-6---1-1-4-----------|

G|-------------------------|------------------------------------|
D|-------------------------|----------------------------------11|
A|----4-------6-6-6--6-6-6-|-----4-------66-44-33-11------------|
E|6-6---1-1-4--------------|-6-6---1-1-4-------------44-33-11---|

Verse 1:
G|----------------------3------------------|
D|--------3---3-1---3/5---5-3-1------------|
A|1---1-3---------3-----------------6-4----|
E|------------------------------4-6-----4-6|

G|--------------------------3------|
D|----3---3/5-3-1-3-----3/5---5-3-1|
A|1-3---------------3--------------|
E|---------------------------------|

G|---------|       G|-----|
D|---------|       D|-----|
A|-----6666| (x2)  A|----6|
E|4/6------|       E|4/6--|

Chorus 1:
G|-------------------|       G|------------------------|---------------| 
D|-------------------|       D|------------------------|---------------|
A|----5-888-3-6666666| (x2)  A|---4-3--------66-44-33-1|---4-3--------6|
E|666----------------|       E|66-----11-4-3-----------|66-----11-4-3--|

Verse 2:
G|-----------------------------3------------------|
D|--------3---3/5-3-1-3-----3/5---5-3-1-----------|
A|1---1-3---------------3------------------6-4----|
E|-------------------------------------4-6-----4-6|

G|------------8-5------------------|
D|--------8-------9--------8-------|
A|6---6-8---8---------8/10---10-8-6|
E|------------------8--------------|

G|---------|       G|-----|
D|---------|       D|-----|
A|-----6666| (x3)  A|----6|
E|4/6------|       E|4/6--|

Chorus 2: 
Repeat Chorus 1, at the end add A|-7-|

Bridge:
G|----------|----------|----------|----------|
D|----------|----------|----------|----------|
A|-8--------|-4--------|-1--------|---6--7---| (x2)
E|----------|----------|----------|----------|

G|----------|----------|----------|----------|
D|----------|----------|----------|----------|
A|-88888888-|-44444444-|-11111111-|-66667777-| (x2)
E|----------|----------|----------|----------|

G|----------------|
D|----------------|
A|8888888888888888|
E|----------------|

Chorus 3:
Repeat Chorus 1
comments
print report bad tab
I want to post or [tab]
guest
You may want to rate the tab now too:
select rating
Please do not post tabs as comments. Select "correction" instead!