Oops, an error
Loading. Please wait.

Ruby Tab

version 6
version 6
8,528 views 9 this week
3 commentsread comments
1 2 3 4 5
accurate
x 10
add to favorites
launch autoscroll
font size
0
reset
how to read this tab
guitar tuner
Tab Pro tools
  • play this tab
  • loop segment
  • change instrument
  • show fretboard
  • metronome
Autoscroll
slow
fast
+/-
esc
set tempo
stop
Contributor
-------------------------------------------------------------------------------
                             Ruby - Kaiser Chiefs
-------------------------------------------------------------------------------
Tabbed by: Aron S
Email: goodsum@hotmail.com

Tuning: Standard

Intro:

e|---------------------|
B|---9-8--8----9-8--8--|
G|--10-8--8---10-8--8--| x2
D|--10-8--8---10-8--8--|
A|---------------------|
E|---------------------|


e|------------------------------------------------------------------|
B|------------------------------------------------------------------|
G|-----------------------8--8---------------------------------------|
D|-------6-66------------8--8-------6-66----------------------------|
A|--8-88-4-44-3-33-6-66--6--6--8-88-4-44-3-33-6-66------------------|
E|--6-66------1-11-4-44--------6-66------1-11-4-44--11--9--8--6--5--|


e|------------------------------------------------------------------------|
B|------------------------------------------------------------------------|
G|-----------------------8--8---------------------------------------------|
D|-------6-66------------8--8-------6-66----------------------------------|
A|--8-88-4-44-3-33-6-66--6--6--8-88-4-44-3-33-6-66------------------------|
E|--6-66------1-11-4-44--------6-66------1-11-4-44--11--9--8--6--4--3--1--|


Verse:

e|-------------------|
B|-------------------|
G|------10--------8--|
D|--8---10---10---8--| x2
A|--8---8----10---6--|
E|--6--------8-------|


Chorus:

e|----------------------------|----------------------------|
B|----------------------------|----------------------------|
G|--------10--10--8--8--8--8--|--------10--10--8--8--8--8--|
D|--8--8--10--10--8--8--8--8--|--8--8--10--10--8--8--8--8--|
A|--8--8--8---8---6--6--6--6--|--8--8--8---8---6--6--6--6--|
E|--6--6----------------------|--6--6----------------------|


e|------------------------------------|--------------------------|--------|
B|------------------------------------|--------------------------|--------|
G|------------------------------------|-----------------------8--|--9--10-|
D|-------6-66^------------------------|-------6-66^-----------8--|--9--10-|
A|--8-88-4-44-3-33-6-66---------------|--8-88-4-44-3-33-6-66--6--|--7--8--|
E|--6-66------1-11-4-44--11--9--8--6--|--6-66------1-11-4-44-----|--------|
                                                                /        /
                                                               /        /
                                                    (not played first time)


Bridge:

e|----------------------------------------------|
B|----------------------------------------------|
G|--10------------8--9--10------------8--9--10--|
D|--10---11---8---8--9--10---11---8---8--9--10--|
A|--8----11---8---6--7--8----11---8---6--7--8---|
E|-------9----6--------------9----6-------------|


Solo:

e|--------------------------------------------------------------------|
B|--------------------------------------------------------------------|
G|--------------------------------------------------------------------|
D|--10p8h10--8h10-----8-10-8-----------8-10-8-----------8-10-8--88-9--|
A|-----------------11--------11-8---11--------11-8---11---------------|
E|--------------------------------------------------------------------|

e|---------------------------------------------------------------------------|
B|---------------------------------------------------------------------------|
G|---------------------------------------------------------------------------|
D|-10p8h10--8h10-----8-10-8-----------8-10-8-----------8-10-8--88-9--99-10~--|
A|----------------11--------11-8---11--------11-8---11-----------------------|
E|---------------------------------------------------------------------------|


| /  slide up
| \  slide down
| h  hammer-on
| p  pull-off
| ~  vibrato
| +  harmonic
| x  Mute note
===============================================================================
comments
print report bad tab
3 comments total.
0 reply
Gossy07 wrote on August 18 2007, 04:40 pm

nt get it snds rong wen i play

0 reply
cameron l n wrote on January 5 2008, 05:43 am

I dont no if its because iam not great on guitar or thats just hard!!

0 reply
evilsadvocate wrote on January 29 2010, 11:23 pm

just diddnt make sence

I want to post or [tab]
guest
You may want to rate the tab now too:
select rating
Please do not post tabs as comments. Select "correction" instead!