Oops, an error
Loading. Please wait.

Ruby Tab

version 8
version 8
12,869 views 60 this week
1 commentread comment
1 2 3 4 5
x 7
add to favorites
launch autoscroll
font size
0
reset
how to read this tab
guitar tuner
Autoscroll
slow
fast
+/-
esc
set tempo
stop
Help us to improve Ultimate-Guitar.com Take our survey!
×
Author
Difficulty
novice
Kaiser Chiefs - Ruby


 INTRO

  (with some distorsion)
|| ------------------- ||
|| ---9p8--8---9p8--8- ||
||O---8----8---8----8-O||
||O--10p8--8--10p8--8-O||
|| ------------------- ||
|| ------------------- ||x2
     

 Gtr. 1
                       D#m5
|| ------------------|------------------|------------------|
|| ------------------|------------------|------------------|
||O------------------|--8---------------|------------------|
||O------------------|--8---------------|------------------|
|| ------------------|--6---------------|------------------|
|| --6--6-9---1--1/4-|------------------|--6--6-9---1--1/4-|
|
|Gtr.2 
|                      Fm7                    
|| ------------------|------------------|------------------|
|| ------------------|--9p8--8---9p8--8-|------------------|
||O------------------|--8----8---8----8-|------------------|
||O------------------|-10p8--8--10p8--8-|------------------|
|| ------------------|------------------|------------------|
|| ------------------|------------------|------------------|
                      Dada daa! Dada daa!

 Gtr. 1                   (after 2nd time)
|------------------- ||  |----------------|
|------------------- ||  |----------------|
|-------------------O||  |----------------|
|-------------------O||  |----------------|
|------------------- ||  |----------------|
|--11-11\9-9\8-8\6\- ||x2|-\4-4\3-3\1-1/4-|


 VERSE I

  A#m    Fm     Cm    D#m5
|--6--|---8--|------|-----|
|--6--|---9--|---8--|-----|
|--6--|--10--|---8--|--8--|
|--8--|--10--|--10--|--8--|
|--8--|---8--|--10--|--6--|
|--6--|------|---8--|-----|

       A#m                 Fm
Let it never be said, that romance is dead
               Cm                 D#m5
'Cause there's so little else occupying my head
         A#m                        Fm
There is nothing I need, except the function to breathe
        Cm                         D#m5      (strum and slide out)
But I'm not really fussed, doesn't matter to me...


 CHORUS

                         A#m5 Fm5   D#m5
|-----------------------|----------|------|
|-----------------------|----------|------|
|-----------------------|-----10---|-8----|
|-----------------------|-8---10---|-8----|
|-----------------------|-8----8---|-6----|
|-----------------------|-6--------|------|
 Ruby, Ruby, Ruby, Ruby!          (Dada daa!)

                         A#m5 Fm5   D#m5
|-----------------------|----------|------|
|-----------------------|----------|------|
|-----------------------|-----10---|-8----|
|-----------------------|-8---10---|-8----|
|-----------------------|-8----8---|-6----|
|-----------------------|-6--------|------|
 Do you, do you, do you, do you?  (Dada daa!)

|-----------------------|--------------------|-----------------|
|-----------------------|--------------------|-----------------|
|-----------------------|--------------------|-----------------|
|-----------------------|--------------------|-----------------|
|-----------------------|--------------------|-----------------|
|-----------------------|-6--6-9-8--1--1-4-3///11-11\9-9\8-8\6-|
 Know what ya' doing, doing to me?  (Dada daa!)

|-----------------------|---------|
|-----------------------|---------|
|-----------------------|---------|
|-----------------------|---------|
|-----------------------|---------|
|-6vv-6--6-9-8--1--1-4-3|-/11vvv--|
 Ruby, Ruby, Ruby, Ruby! (Dada daa... ah!)


 VERSE II

       A#m                 Fm
Due te lack of interest, tomorrow is cancelled

        Cm                      D#m5       (with delay)
                                        b|-9p8---9p8---|
D|-10-11-11/13-|                        G|-----8-----8-| 
Let the clocks be reset and the pendulumd held
               A#m                        Fm
'Cause there's nothing at all, except the space in between
        Cm                         D#m            (strum and slide out)
D|-10-11-11/13-|
Finding out what you're called and repeating your name


 CHORUS

                         A#m5 Fm5   D#m5
|-----------------------|----------|------|
|-----------------------|----------|------|
|-----------------------|-----10---|-8----|
|-----------------------|-8---10---|-8----|
|-----------------------|-8----8---|-6----|
|-----------------------|-6--------|------|
 Ruby, Ruby, Ruby, Ruby!          (Dada daa!)

                         A#m5 Fm5   D#m5
|-----------------------|----------|------|
|-----------------------|----------|------|
|-----------------------|-----10---|-8----|
|-----------------------|-8---10---|-8----|
|-----------------------|-8----8---|-6----|
|-----------------------|-6--------|------|
 Do you, do you, do you, do you?  (Dada daa!)

|-----------------------|--------------------|-----------------|
|-----------------------|--------------------|-----------------|
|-----------------------|--------------------|-----------------|
|-----------------------|--------------------|-----------------|
|-----------------------|--------------------|-----------------|
|-----------------------|-6--6-9-8--1--1-4-3///11-11\9-9\8-8\6-|
 Know what ya' doing, doing to me?  (Dada daa!)

|-----------------------|----------------|
|-----------------------|----------------|
|-----------------------|----------------|
|-----------------------|----------------|
|-----------------------|----------------|
|-6vv-6--6-9-8--1--1-4-3|-/11vvv--/12vvv-|
 Ruby, Ruby, Ruby, Ruby! (Dada daa... ah!)


BRIDGE

  Fm    C#     A#m    D#5      E5
|--8--|------|-----|---------------------|
|--9--|---9--|--6--|---------------------|
|-10--|--10--|--6--|-----13p12----15p13--|
|-10--|--11--|--8--|---------------------|
|--8--|--11--|--8--|--13-------14--------|
|-----|---9--|--6--|--11-------12--------|

Fm                                      C#
Could it be? Could it be... that you're joking with me?
        A#m                       D#5  E5
And you don't really see you with me
Fm                                      C#
Could it be? Could it be... that you're joking with me?
        A#m                       D#5  E5
And you don't really see you with me


 GUITAR SOLO

|| -------------------------------------------------------------------- ||
|| -------------------------------------------------------------------- ||
||O--------------------------------------------------------------------O||
||O-10p8h10--10p8h10--6-8/10-8\6---6-8/10-8\6---6-8-8/10--8--8-8-9vvvv-O||
|| ------------------------------8------------8------------------------ ||
|| -------------------------------------------------------------------- ||x2


|--------------------------------------------|
|--------------------------------------------|
|--------------------------------------------|
|-9-9-10-10-10-10-10-10-10-10-10-10-10-10-10-|
|--------------------------------------------|
|--------------------------------------------|


 FINAL CHORUS

                         A#m  Fm    D#m
|-----------------------|----------|------|
|-----------------------|----------|------|
|-----------------------|-----10---|-8----|
|-----------------------|-8---10---|-8----|
|-----------------------|-8----8---|-6----|
|-----------------------|-6--------|------|
 Ruby, Ruby, Ruby, Ruby!          (Dada daa!)

                         A#m5 Fm5   D#m5
|-----------------------|----------|------|
|-----------------------|----------|------|
|-----------------------|-----10---|-8----|
|-----------------------|-8---10---|-8----|
|-----------------------|-8----8---|-6----|
|-----------------------|-6--------|------|
 Do you, do you, do you, do you?  (Dada daa!)

|-----------------------|--------------------|-----------------|
|-----------------------|--------------------|-----------------|
|-----------------------|--------------------|-----------------|
|-----------------------|--------------------|-----------------|
|-----------------------|--------------------|-----------------|
|-----------------------|-6--6-9-8--1--1-4-3///11-11\9-9\8-8\6-|
 Know what ya' doing, doing to me?  (Dada daa!)

|-----------------------|--------------------|-----------------|
|-----------------------|--------------------|-----------------|
|-----------------------|--------------------|-----------------|
|-----------------------|--------------------|-----------------|
|-----------------------|--------------------|-----------------|
|-----------------------|-6--6-9-8--1--1-4-3///11-11\9-9\8-8\6-|
 Ruby, Ruby, Ruby, Ruby   (Dada daa!)

                                               D#m5
|-----------------------|--------------------|-----------------|
|-----------------------|--------------------|-----------------|
|-----------------------|--------------------|--8--------------|
|-----------------------|--------------------|--8--------------|
|-----------------------|--------------------|--6--------------|
|-----------------------|-6--6-9-8--1--1-4-3-|-----------------|
 Do you, do you, do you, do you?  (Dada daa!)

                                               D#m5 E5  F5
|-----------------------|--------------------|-----------------|
|-----------------------|--------------------|-----------------|
|-----------------------|--------------------|--8---9---10-----|
|-----------------------|--------------------|--8---9---10-----|
|-----------------------|--------------------|--6---7----8-----|
|-----------------------|-6--6-9-8--1--1-4-3-|-----------------|
 What ya' doing, doing to me?  (Dada daa!)
Suggest correction
comments
print report bad tab
1 comment total.
+1 reply
Biologostereo 10 Apr 12, 2011 06:41 PM

Simply excellent, really like that way you tabbed it.
^^)b

guest
You may want to rate the tab now too:
select rating
Wanna post a correction for this tab? Suggest correction