Oops, an error
Loading. Please wait.

Spanish Metal Tab

470 views 1 this week
1 commentread comment
1 2 3 4 5
please rate
add to favorites
launch autoscroll
font size
0
reset
how to read this tab
guitar tuner
Tab Pro tools
  • play this tab
  • loop segment
  • change instrument
  • show fretboard
  • metronome
×
Best way to learn
"Spanish Metal"
Autoscroll
slow
fast
+/-
esc
set tempo
stop
Contributor
Difficulty
novice
-----------------------------------------------------------------------------
                             SPANISH METAL - Kaiser Chiefs
-----------------------------------------------------------------------------
Tabbed by: CustomTomato
E-mail: customtomato@gmail.com

Tuning: Standard

This song is fairly easy to work out by ear, but I couldn't find any full tabs on the 
internet and thought I would make this if anyone was having trouble. Email me for any 
suggestions / issues. Enjoy :)

               Intro - Main Riff
e|--------------------------------3-1-0-------------------3-1-0-------------|
B|----------------------3-1-0------------------3-1-0------------------------|
G|--------------------------------------------------------------------------|
D|--2---3----2---3----2--------3------------2----------3--------------------|
A|--2---3----2---3----2--------3------------2----------3--------------------|
E|--0---1----0---1----0--------1------------0----------1--------------------|

e|----------------3-1-0-----------------3-1-0--------------------------------|
B|-----3-1-0-----------------3-1-0-------------------------------------------|
G|---------------------------------------------------------------------------|
D|---2---------3----------2----------3----------2----------------------------|
A|---2---------3----------2----------3----------2----------------------------|
E|---0---------1----------0----------1----------0----------------------------|

          Verse 1 - Come in after 'pinned it to my door...'
e|---------------------------------------------------------------------------|
B|---------------------------------------------------------------------------|
G|-------------------------------------5-------------------------------------|
D|-------------------------5-----3-----5-----2-----3-----2-------------------|
A|-------------------------5-----3-----3-----2-----3-----2-------------------|
E|---0-0--0-0--0-0--0-0----3-----1-----------0-----1-----0-------------------|

                    Play main riff again
                    Verse 2 - Same as verse 1
                    Verse 2 - Come in after 'what's going on...'

                         Pre-Chorus
e|---------------------------------------------------------------------------|
B|---------------------------------------------------------------------------|
G|--------------9------------------------------------------------------------|
D|--------------9------------------------------------------------------------|
A|----7b--8b----7------------------------------------------------------------|
E|---------------------------------------------------------------------------|
               Listen to song for strumming pattern on that chord

                         Chorus

e|----------------------------------------------------------------------------|
B|----------------------------------------------------------------------------|
G|--------2-------2p0-2p0-2p0-2p0-2p0-2p0-2p0-2p0-----------------------------|
D|---2----2----2--------------------------------------------------------------|
A|---2----0----2--------------------------------------------------------------|
E|---0---------0--------------------------------------------------------------|

e|---------------------------------------------------------------------------|
B|---------------------------------------------------------------------------|
G|--------2----5--2p0-2p0-2p0-2p0-2p0-2p0-2p0-2p0----------------------------|
D|---2----2----5-------------------------------------------------------------|
A|---2----0----3-------------------------------------------------------------|
E|---0-----------------------------------------------------------------------|

e|----------------------------------------------------------------------------|
B|----------------------------------------------------------------------------|
G|--------2-------2p0-2p0-2p0-2p0-2p0-2p0-2p0-2p0-----------------------------|
D|---2----2----2--------------------------------------------------------------|
A|---2----0----2--------------------------------------------------------------|
E|---0---------0--------------------------------------------------------------|

e|---------------------------------------------------------------------------|
B|---------------------------------------------------------------------------|
G|--------2----5--2p0-2p0-2p0-2p0-2p0-2p0-2p0-2p0----------------------------|
D|---2----2----5-------------------------------------------------------------|
A|---2----0----3-------------------------------------------------------------|
E|---0-----------------------------------------------------------------------|

                  Play main riff again and finish on

e|---------|
B|---------|
G|---------|
D|---2-----|
A|---2-----|
E|---0-----|
************************************

| /   slide up
| \   slide down
| h   hammer-on
| p   pull-off
| ~   vibrato
| +   harmonic
| x   Mute note
| b   Bend
| pb  Pre-bend
| br  Bend release
| pbr Pre-bend release
| brb Bend release bend

************************************
comments
We did not receive enough feedback on this tab! Please rate:
print report bad tab
1 2 3 4 5
1 comment total.
0 reply
Carlosjames64 wrote on June 24 2012, 09:57 pm

i can do that

I want to post or [tab]
guest
You may want to rate the tab now too:
select rating
Please do not post tabs as comments. Select "correction" instead!