Oops, an error
Loading. Please wait.

Time Honoured Tradition Bass Tab

version 1
version 1

Whole song

Interactive

323 views 1 this week
no commentswrite comment
1 2 3 4 5
please rate
add to favorites
launch autoscroll
font size
0
reset
guitar tuner
Autoscroll
slow
fast
+/-
esc
set tempo
stop
Help us to improve Ultimate-Guitar.com Take our survey!
×
Author
Difficulty
novice
Title: Time Honoured Tradition
Artist: Kaiser Chiefs
Album: Employment
Tabber: Zachary A. Cole

Verse
                                                   (B)
G|-----------|----------|------------|--------------------------|
D|-----------|----------|------------|--------------------------|      x2
A|-44--22----|22--------|-44--22-----|-----------------2--------|
E|---------55|----55--44|----------55|-(44)-2---222--2----------|


(Play B. Before various solos)
G|---------|-----------|--------|
D|-silence-|-----------|-Guitar-|
A|---------|--4--2-----|--------|
E|---------|--------5--|--------|

Chorus (including the Oh Ohs)
G|--------------------------|
D|--------------------------| (Play chorus throughout solo)
A|--44--77--66--7---6---2---|
E|--------------------------|
Suggest correction
Give kudos to tab author, rate the tab!
1 2 3 4 5
comments
print report bad tab
guest
You may want to rate the tab now too:
select rating
Please do not post tabs as comments. Select "correction" instead!