Oops, an error
Loading. Please wait.

Time Honoured Tradition Bass Tab

version 2
version 2

Whole song

Interactive

781 views 3 this week
1 commentread comment
1 2 3 4 5
excellent!
x 3
add to favorites
launch autoscroll
font size
0
reset
guitar tuner
Autoscroll
slow
fast
+/-
esc
set tempo
stop
Help us to improve Ultimate-Guitar.com Take our survey!
×
Difficulty
novice
This is how i think it should go... tell me if im wrong lol. You use normal tuning.

G|-----------|----------|------------|--------------------------|
D|-----------|----------|------------|--------------------------|      x2
A|-44--22----|22--------|-44--22-----|--------------------------|
E|---------55|----55--44|----------55|-(44)-2---222--0-2--------|


G|--------------------------|--------------------------|--------------------------|
D|--------2-4-2-------------|--------2-4-2-4-2---------|-4-444-2-4----------------|
A|---------------4-2--------|--------------------------|--------------------------|
E|-2---222------------------|-2---222------------------|--------------------------|

G|--------------------------|
D|--------------------------|    x2
A|--------------------------|
E|-22-55-44-5-4-0-----------|

Repeat all of that, then...

G|---------------|--------------|---------------------|------------2-4-2-------|---------------------|------------2-4-2-------|
D|---------------|--------------|-44--44--44-2-4-2----|-44--44--44------4-2----|-44--44--44-2-4-2----|-44--44--44------4-2----|
A|---------------|--------------|-----------------4-2-|------------------------|-----------------4-2-|------------------------|
E|-22-55-44-5-4-0|-22-55-44-5-4-|---------------------|------------------------|---------------------|------------------------|

G|---------------|--------------|-------------------------|------------------------|
D|---------------|--------------|-------------------------|------------------------|
A|---------------|--------------|-------------------------|------------------------|
E|-22-55-44-5-4-0|-22-55-44-5-4-|-22--55--44--5-4-0-------|-22--55--44--5-4--------|

G|---------------|--------------|
D|---------------|--------------| x 2
A|---------------|--------------|
E|-22-55-44-5-4-0|-22-55-44-5-4-|


G|-----------|----------|------------|--------------------------|
D|-----------|----------|------------|--------------------------|
A|-44--22----|22--------|-44--22-----|--------------------------|
E|---------55|----55--44|----------55|-(44)-2---222--0-2--------|


End
Suggest correction
Give kudos to tab author, rate the tab!
1 2 3 4 5
comments
print report bad tab
1 comment total.
0 reply
dante85 10 wrote on February 25 2007, 11:49 am

pretty decent tab, it sounds ok to me.

guest
You may want to rate the tab now too:
select rating
Wanna post a correction for this tab? Suggest correction