Oops, an error
Loading. Please wait.

Time Honoured Tradition Tab

version 2
version 2

Whole song

Interactive

169 views 1 this week
4 commentsread comments
1 2 3 4 5
1 last vote to show rating
add to favorites
launch autoscroll
font size
0
reset
how to read this tab
guitar tuner
Autoscroll
slow
fast
+/-
esc
set tempo
stop
Help us to improve Ultimate-Guitar.com Take our survey!
×
Author
Tabbers playing skills
intermediate +
By BlackMist


Intro Part 1

E--------------------------------|----------------------------|---------------|
B--------------------------------|----------------------------|---------------|
G--------------------------------|----------------------------|---------------|
D--------------------------------|----------------------------|---------------|
A--4----4----2----2----0-----0---|-2----2---0---0-------------|---------------|
E--------------------------------|-------------------4------4-|---------------|

Intro Part 2

E------------------------------|------------------------------|------------------|
B------------------------------|------------------------------|------------------|
G------------------------------|------------------------------|------------------|
D------------------------------|------------------------------|------------------|
A------------------------------|---4------4---2-----2----0--0-|-2--2--0--0-------|
E--2---2---2---2-----0-----2---|------------------------------|--------------4-4-|

"Oh oh oh oh oh oh oh oh oh oh" Part

E----------------------------------------------------------------
B----------------------------------------------------------------
G----------------------------------------------------------------
D---4---4-------7----7------6----6----7-----6--------------------
A----------------------------------------------------------------
E---2---2-------5----5------4----4----5-----4-------0------------


Just Repeat the bars in this order, and you should be able to play the song fine.

Im pretty certain this is 100% right, but email if theres anythin wrong or theres probs
etc. at SeanHoughton2@hotmail.com Enjoy, and have fun,

BlackMist
Suggest correction
Give kudos to tab author, rate the tab!
1 2 3 4 5
comments
print report bad tab
4 comments total. Showing first comments.
0 reply
BlackMist 132 Jul 14, 2005 12:00 AM

Sorry, I got the Oh Oh Oh Oh bit wrong. The real tab is :

E----------------------------------------------------------------
B----------------------------------------------------------------
G----------------------------------------------------------------
D---4---4-------7----7------6----6----7-----6--------------------
A----------------------------------------------------------------
E---2---2-------5----5------4----4----5-----4-------0------------

0 reply
METSOAD 1,622 Mar 02, 2006 08:36 AM

BLACK MIST IS A FOOL, YOU MISSED THE SOLO TYPE THING (it is so simple it is not a solo) MORON FOOL NIT WIT

0 reply
METSOAD 1,622 Apr 10, 2006 01:00 PM

15 actually

guest
You may want to rate the tab now too:
select rating
Wanna post a correction for this tab? Suggest correction