Oops, an error
Loading. Please wait.

Time Honoured Tradition Bass Tab

version 3
version 3

Whole song

Interactive

48 views 1 this week
no commentswrite comment
1 2 3 4 5
3 more votes to show rating
add to favorites
launch autoscroll
font size
0
reset
guitar tuner
Autoscroll
slow
fast
+/-
esc
set tempo
stop
Help us to improve Ultimate-Guitar.com Take our survey!
×
Author
Difficulty
novice
The simplest way to play this song enjoy :) 


G|-----------|----------|-----------|--------------------------|
D|-----------|----------|-----------|--------------------------|      x2
A|-44--22--00|22--00----|-44--22--00|--------------------------|
E|-----------|--------44|-----------|-(44)-2---222--0-2--------|


G|--------------------------|--------------------------|--------------------------|
D|--------2-4-2-------------|--------2-4-2-4-2---------|-4-444-2-4----------------|
A|---------------4-2--------|--------------------------|--------------------------|
E|-2---222------------------|-2---222------------------|--------------------------|

G|--------------------------|
D|--------------------------|    x2
A|----00----0---------------|
E|-22----44---4-0-----------|

Repeat the whole, then...

G|---------------|--------------|---------------------|------------2-4-2-------|
D|---------------|--------------|-44--44--44-2-4-2----|-44--44--44------4-2----|
A|----00----0----|----00----0---|-----------------4-2-|------------------------|
E|-22----44---4-0|-22----44---4-|---------------------|------------------------|

G|---------------------|------------2-4-2-------|
D|-44--44--44-2-4-2----|-44--44--44------4-2----|
A|-----------------4-2-|------------------------|
E|---------------------|------------------------|

G|---------------|--------------|-------------------------|------------------------|
D|---------------|--------------|-------------------------|------------------------|
A|----00----0----|----00----0---|-----00------0-----------|-----00------0----------|
E|-22----44---4-0|-22----44---4-|-22------44----4-0-------|-22------44----4--------|

G|---------------|--------------|
D|---------------|--------------| x 2
A|----00----0----|----00----0---|
E|-22----44---4-0|-22----44---4-|


G|-----------|----------|------------|--------------------------|
D|-----------|----------|------------|--------------------------|
A|-44--22--00|22--00----|-44--22---00|--------------------------|
E|-----------|--------44|------------|-(44)-2---222--0-2--------|
Suggest correction
Give kudos to tab author, rate the tab!
1 2 3 4 5
comments
print report bad tab
guest
You may want to rate the tab now too:
select rating
Wanna post a correction for this tab? Suggest correction