Oops, an error
Loading. Please wait.

You Can Have It All Bass Tab

762 views 1 this week
no commentswrite comment
1 2 3 4 5
2 more votes to show rating
add to favorites
launch autoscroll
font size
0
reset
guitar tuner
Autoscroll
slow
fast
+/-
esc
set tempo
stop
Help us to improve Ultimate-Guitar.com Take our survey!
×
It took a while because the bass is subtle but this is
all right, or at least close enough for some one else to
improve and tab perfectly

Chorus:
G|-----------|-----------|-----------|-----------|
D|-1--1--1-1-|-0--0--0-0-|-----------|-----0-1-3-|
A|-----------|-----------|-3--3--3-3-|-1-3-------|
E|-----------|-----------|-----------|-----------|

G|-----------|-----------|-----------------------------------------|
D|-1--1--1-1-|-0--0--0-0-|------5--5------5--5-3--3----3--3--3---3-|
A|-----------|-----------|-3--3------3--3--------------------------|
E|-----------|-----------|--------------------------1----------1---|
hope thats not too confusing.

Verse:
G|--------------------|--------------------|------------------|
D|------------------3-|--------------------|-3--3-1--1-0--0---|
A|-3--1-3--1-3--1-3---|-3--1-3--1-3--1-3-3-|----------------3-|
E|--------------------|--------------------|------------------|

G|--------------------|
D|---3--3-1--1-0--0---|
A|-3----------------3-|  Repeat a few times.
E|--------------------|

Prechorus: ("Its not my fault i dont care i dont regret a single thing")
G|--------------------------------------|
D|----------------5--5-3--3-1--1-0--0---|
A|-3--3-1--1-3--3---------------------3-|  Repeat
E|--------------------------------------|

Order:
Chorus
Verse
Prechorus
Verse
Prechorus
Chorus
Verse (Guitar solo)
Prechorus
Chorus*
Prechorus (Outro) - end on D|-3-|

*In the last chorus it plays the first four bars (D#, D, C, Bb)
3 times instead of one before the outro
Suggest correction
Give kudos to tab author, rate the tab!
1 2 3 4 5
comments
print report bad tab
guest
You may want to rate the tab now too:
select rating
Wanna post a correction for this tab? Suggest correction