Oops, an error
Loading. Please wait.

You Want History Tab

version 1
version 1

Whole song

Interactive

2,107 views 3 this week
no commentswrite comment
1 2 3 4 5
please rate
add to favorites
launch autoscroll
font size
0
reset
how to read this tab
guitar tuner
Autoscroll
slow
fast
+/-
esc
set tempo
stop
Help us to improve Ultimate-Guitar.com Take our survey!
×
Author
--------------------------------------------------------------------------
You Want History - Kaiser Chiefs
--------------------------------------------------------------------------

Intro:

D|--------6b~~~~~~~~~----|

Verse:

  Yesturday...
e|-------------------------------------------|
B|-------------------------------------------|
G|-------------------------------------------|
D|-------------------------------------------|
A|-------------------------------------------|
E|-4-4-4-4-4-4-2-2-2-2~~0-0-0-0-0-0-2-2-2-2~~| x2

Add a quick slide up the neck and down before going into the chorus.

Chorus:

It’s a Mystery...
   G#m                      C#          C#sus4  C#
e|----------------------------------------------------|
B|--4—-4--4--4—-4--4--4--4--6--6--6—-6--555555556666--|
G|--4--4--4--4--4--4--4--4--6--6--6—-6--666666666666--|
D|--6—-6--6--6--6--6--6--6--6--6—-6-—6--666666666666--|
A|--6—-6--6--6--6--6--6--6--4--4--4—-4--444444444444--|
E|--4—-4--4--4—-4—-4--4--4----------------------------| x2

   B               G#m
e|----------------------------------|
B|-4-4-4-4-4-4-4-4------------------|
G|-4-4-4-4-4-4-4-4-4444444444444444-|
D|-4-4-4-4-4-4-4-4-6666666666666666-|
A|-2-2-2-2-2-2-2-2-6666666666666666-|
E|-----------------4444444444444444-| x2

Try a light bit of muting on G#m to get the scratchy sound

    B               Bsus4 B       C#             C#sus4 C
e|------------------------------------------------------------|
B|-4-4-4-4-4-4-4-4-555555444444--6-6-6—6-6-6-6—6-555555666666-|
G|-4-4-4-4-4-4-4-4-444444444444--6-6-6-6-6-6-6—6-666666666666-|
D|-4-4-4-4-4-4-4-4-444444444444--6-6-6-6-6-6—6—6-666666666666-|
A|-2-2-2-2-2-2-2-2-222222222222--4-4-4-4-4-4-4-4-444444444444-|
E|------------------------------------------------------------|

Play this bit on it’s own again after the second chorus.

When playing live whitey then slides up the neck to 16
on the E string and waggles it a bit at the end of the build up while peanut starts his 
thing.
e|-----------------------------------------------------------|
B|-----------------------------------------------------------|
G|-----------------------------------------------------------|
D|-----------------------------------------------------------|
A|-2-2-4-4--------2-2-4-4--------2-2-4-4---------------------|
E|---------4-444----------4-444----------4-444-0-0-2-2-4-444-| x5

  B    C#  G#                                  E   F#  G#
e|-----------------------------------------------------------|
B|-----------------------------------------------------------|
G|-4-4-6-6--------4-4-6-6--------4-4-6-6---------------------|
D|-4-4-6-6-6------4-4-6-6-6------4-4-6-6-6-----2-2-4-4-6-----|
A|-2-2-4-4-6------2-2-4-4-6------2-2-4-4-6-----2-2-4-4-6-----|
E|---------4--------------4--------------4-----0-0-2-2-4-----| x2

e|-------------------------------------------------|
B|-------------------------------------------------|
G|-------------------------------------------------|
D|--------------------6~6~-------------------------|
A|-------------------------------------------------|
E|-7-7-9-9-4-4--7-7-9------7-7-9-9-4-4--0-0-2-2-4~-| x2

e|-----------------------------------------------------------|
B|-----------------------------------------------------------|
G|-4-4-6-6--------4-4-6-6--------4-4-6-6---------------------|
D|-4-4-6-6-6------4-4-6-6-6------4-4-6-6-6-----2-2-4-4-6-----|
A|-2-2-4-4-6------2-2-4-4-6------2-2-4-4-6-----2-2-4-4-6-----|
E|---------4--------------4--------------4-----0-0-2-2-4-----| x2
Suggest correction
What's this?
You can suggest a correction to this tab. Community and Mods will review your correction and vote to approve or reject it.
comments
We did not receive enough feedback on this tab! Please rate:
print report bad tab
1 2 3 4 5
guest
You may want to rate the tab now too:
select rating
Please do not post tabs as comments. Select "correction" instead!