Oops, an error
Loading. Please wait.

Siste Dans Tab

1,029 views 1 this week
no commentswrite comment
1 2 3 4 5
2 more votes to show rating
add to favorites
launch autoscroll
font size
0
reset
how to read this tab
guitar tuner
Autoscroll
slow
fast
+/-
esc
set tempo
stop
Help us to improve Ultimate-Guitar.com Take our survey!
×
Author
Difficulty
novice
-----------------------------------------------------------------------------
                          Siste Dans - Kaizers Orchestra
-----------------------------------------------------------------------------
Tabbed by: Even MM, Norway

Tuning: Standard

Took this song by ear. Seeing as it's not anywhere on the internet already, I decided to 
post it here. Should be pretty correct.

The intro and chorus goes like this:

e|----------------------------------|-------------------------------|
B|----------------------------------|-------------------------------|
G|------------------7--7/10-10---10-|------------------8--8-7-7---7-|
D|-5-5---5/8-8---8--7--7/10-10---10-|-5-5---5/8-8---8--8--8-7-7---7-|
A|-5-5---5/8-8---8--5--5/-8--8----8-|-5-5---5/8-8---8--6--6-5-5---5-|
E|-3-3---3/6-6---6------------------|-3-3---3/6-6---6---------------|

e|------------------------------------|
B|------------------------------------|
G|-----5--/8-8------------------------|
D|---5----/8-8------8-8-8-8-8-7-7-7-7-|
A|-3-----3/6-6-6h10---8-8-8-8-7-7-7-7-|
E|--------------------6-6-6-6-5-5-5-5-|

After the intro there's a part with piano and drums. Then verse 1:

e|--------------------------------------------------------|
B|--------------------------------------------------------|
G|--------------8--8-7-------5--7-8-----------------------|
D|-5--7-8-------8--8-7-------5--7-8-------8-8-8-8-7-7-7-7-|
A|-5--7-8-------6--6-5-------3--5-6-------8-8-8-8-7-7-7-7-|
E|-3--5-6---------------------------------6-6-6-6-5-5-5-5-|

x2, then:

e|------------------------|
B|------------------------|
G|-8-----------------7--7-|
D|-8-----------------7--7-|
A|-6-----------------5--5-|
E|------------------------|

Then the chorus, which is like the intro. Here's the thing after the chorus:

e|-----------------------------------------------------------------------|
B|-----------------------------------------------------------------------|
G|------------7---5/7-5-----(7-7-5--)------------7---8-7-5-----(7-7-5--)-|
D|-5--7-8---8---8-------8-7-(------8)-5--7-8---8---8-------8-7-(------8)-|
A|-5--7-8-8---------------------------5--7-8-8---------------------------|
E|-3--5-6-----------------------------3--5-6-----------------------------|

The notes in the parenteses are played by the piano, but that's how it goes if you want 
to play it.

e|--------------------6---|
B|------------------6---6-|
G|------------7---7-------|
D|-5--7-8---8---8---------|
A|-5--7-8-8---------------|
E|-3--5-6-----------------|

Then comes the second verse, with some nice picking. Listen for timing! :)

e|-6p5p3--------------------(8)/10-8-6-8--5-|
B|------------6-----------------------------|
G|----------7-----5h7p5---------------------|
D|----------------------8-------------------|
A|------------------------------------------|
E|------------------------------------------|

e|-------------------------------------------|
B|----6h8p6----------------------------------|
G|----------7--(5)/7p5---5\3-----------------|
D|---------------------8-----5---------------|
A|------------------------------------5-8----|
E|------------------------------6-6h8-----8~-|

e|-------------------------------------5-6-8-|
B|-------------------------------------------|
G|---------------5h7p5---8-8-8-8-8-8-7-------|
D|-5-5-5-5-7-8---------8-8-8-8-8-8-8-7-------|
A|-5-5-5-5-7-8-----------6-6-6-6-6-6-5-------|
E|-3-3-3-3-5-6-------------------------------|

e|-------------------------------------------|
B|----6h8p6----------------------------------|
G|----------7--(5)/7p5---5\3-----------------|
D|---------------------8-----5---------------|
A|------------------------------------5-8----|
E|------------------------------6-6h8-----8~-|

e|------------------------|
B|------------------------|
G|-----8-------8-----7--7-|
D|---8---8---8---8---7--7-|
A|-6-------6---------5--5-|
E|------------------------|

Then Chorus x2.

The outro is much like the part after the chorus, only softer, and the guitar plays what 
the piano played earlier. It ends on a Gm:

e|-^6-----|
B|-|8-----|
G|-|7-----|
D|-|5-----|
A|--------|
E|--------|

Order:
Pre-Intro (Piano)
Intro (Chorus)
Verse I
Chorus
Post-chorus
Verse II
Chorus
Chorus
Post-chorus
Outro

************************************

| /   slide up
| \   slide down
| h   hammer-on
| p   pull-off
| ~   vibrato

************************************
Suggest correction
Give kudos to tab author, rate the tab!
1 2 3 4 5
comments
print report bad tab
guest
You may want to rate the tab now too:
select rating
Wanna post a correction for this tab? Suggest correction