Oops, an error
Loading. Please wait.

Stov Og Sand Tab

464 views 3 this week
no commentswrite comment
1 2 3 4 5
please rate
add to favorites
launch autoscroll
font size
0
reset
how to read this tab
guitar tuner
Autoscroll
slow
fast
+/-
esc
set tempo
stop
Help us to improve Ultimate-Guitar.com Take our survey!
×
Author
Difficulty
novice
Tuning: Drop D

Riff 1
E|----------------------------------------------------------------------|
B|----------------------------------------------------------------------|
G|----------------------------------------------------------------------|
D|---------------------3h4--3h4----------------5--5---------5--5-----0--|
A|------------5-------------------5---0--2--3-3--3--3~-0--22--2-----0---|
D|--0--3b--0-----3--0---------------------------------------------3b----|


Riff 2
E|--14-13-12-11-10----9-10-11-12-13-14-15-------------------------------|
B|--18-17-16-15-14---13-14-15-16-17-18-19-------------------------------|
G|----------------------------------------------------------------------|
D|--------------------------------------------5--5---------5--5-----0---|
A|-----------------------------------------3-3--3--3~-0--22--2-----0----|
D|---------------------------------------------------------------3b-----|
Suggest correction
Give kudos to tab author, rate the tab!
1 2 3 4 5
comments
print report bad tab
guest
You may want to rate the tab now too:
select rating
Please do not post tabs as comments. Select "correction" instead!