Oops, an error
Loading. Please wait.

Tusen Draper Regn Tab

version 2
version 2

Whole song

19 views 1 this week
no commentswrite comment
1 2 3 4 5
3 more votes to show rating
add to favorites
launch autoscroll
font size
0
reset
how to read this tab
guitar tuner
Autoscroll
slow
fast
+/-
esc
set tempo
stop
Help us to improve Ultimate-Guitar.com Take our survey!
×
Author
Tabs for "Tusen Dråper Regn" from Kaizers Orchestra's 7th studio album; "Violeta Violeta Volume II", the
second in the "Violeta Violeta" trilogy.
All timestamps are from the Spotify version.
All feedback is appreciated.

[Intro, 0:00]
 (Guitar 1)x4, end on a single 10
e|------------8----------------------------------13-13-12-10-------------------------------------|
B|-10-10-9-10------------------------------------------------13-10-10-10-10-10-10-10-10-10-10-10-|
G|--------------10-10-10-10-10-10-10-10-10-10-10-------------------------------------------------|
D|-----------------------------------------------------------------------------------------------|
A|-----------------------------------------------------------------------------------------------|
E|-----------------------------------------------------------------------------------------------|
 (Guitar 2) x4, end on a single 7
e|-----------------------------------------------------------------|
B|---------------------------------6-6-5---------------------------|
G|---------5-----------------------------7-5-----------------------|
D|-7-7-6-7-----------------------------------7-7-7-7-7-7-7-6-7-7-7-|
A|-----------8-8-8-8-8-8-8-7-8-8-8---------------------------------|
E|-----------------------------------------------------------------|


[Verse, 0:23]
(No guitar while singing)
e|------------------------------------------|
B|------------------------------------------|
G|------------------------------------------|
D|------------------------------------------|
A|------------5-4---------5-4-2-------------|
E|-2---5-2--------2-------------5-2---0-0-2-|


[Chorus part 1, 1:10]
"Me suse avgårde langs bakken..."
e|---------------------------------------------|
B|---------------------------------------------|
G|---------------------------------------------|
D|---------------------------------------------|
A|------------8--7-6-------------------8-7-8-7-|
E|-5--5-1------------8--5----5--5-1------------|
[Chorus part 2, 1:22]
"Og det e som et dødsskrik, når bremsene..."
e|---------------------------------------------|
B|---------------------------------------------|
G|---------------------------------------------|
D|---------------------------------------------|
A|------------8--7-6-------------------8-8-7---|
E|-5--5-1------------8--5----5--5-1----------5-|


[Repeat Intro x2, 1:34]
[Repeat Verse, 1:44]
[Repeat Chorus part 1 x3, 2:32]
[Repeat Chorus part 2, 3:07]
[Repeat Intro x4, 3:20]
Suggest correction
Give kudos to tab author, rate the tab!
1 2 3 4 5
comments
print report bad tab
guest
You may want to rate the tab now too:
select rating
Wanna post a correction for this tab? Suggest correction