Oops, an error
Loading. Please wait.

Too Shy bass

version 1
version 1

Whole song

Interactive

10,909 views 36 this week
3 commentsread comments
1 2 3 4 5
1 last vote to show rating
add to favorites
×
Save as Personal and add changes to this tab that will be seen only by you. Learn more ›
×
You can save this tab as Personal to edit and correct it or add notes. All changes will be seen only by you. Learn more »
launch autoscroll
font size
0
reset
guitar tuner
edit
Autoscroll
slow
fast
+/-
esc
set tempo
stop
Author
Difficulty
-------------------------------------------------------------------------------
			     TOO SHY - Kajagoogoo
-------------------------------------------------------------------------------

Tabbed By : Brady McCluer
band website: http://www.kajagoogoo.com

Tuning: EADG

INTRO					

G|----------------------------------15p13|
D|-7p0-5p0-7-5h7-------------------------|
A|--------------------0-7p0-5p0-7--------|
E|---------------------------------------|

INTRO Fill 

G|----------------7-7---------------15p13|
D|-7p0-5p0-7-5h7-------------------------|
A|--------------------0-7p0-5p0-7--------|
E|---------------------------------------|

VERSE

G|--------------|--------------|------------|-----------------|
D|--------------|-----------33-|------------|-----------------|
A|--------------|5--3--5---5--5|7--5--7--7p0|5--3--5---5/12\--|
E|-5--3--5---5p3|--------------|------------|-----------------|

PRECHORUS

G|----------------|-----------------|----------------|-----------------------|
D|----------------|-----------------|----------------|-------------10--------|
A|-------3--5-7h8-|-------3----5p3--|-------3--5-7h8-|-------3---------------|
E|-3--5-----------|-3--5-----5----5-|-3--5-----------|-3--5-----x8-----------|

CHORUS				

G|---------------12--12-12-12-|---------------------|
D|---12-----------------------|---------------------|
A|----------8/10--------------|-----------------8~--|
E|-10---10\-------------------|-6--x6------9-8p6----|

CHORUS END

G|----------------|
D|----------------|
A|----------------|
E|-6--------------|

BRIDGE

G|----------------------|----------------|
D|77-7-7-7-7h9--7-------|----------------|
A|-----------------10--9|7--75-7-5h7-----|
E|----------------------|----------------|




INTRO 		2x
Intro fill	2x
INTRO		4x
VERSE		2x
PRECHORUS	1x
CHORUS		1x
CHORUS Hold	1x
VERSE		2x
PRECHORUS	1x
CHORUS		1x
CHORUS Hold	2x
BRIDGE		8x
CHORUS + Hold	3x fades out

Notes:
As a typical 80's classic, there is some synth bass in there; more than likely dubbed
with a slap bass synth so it will be hard to get the right sound. This tab is pretty
close but not perfect.


| /  slide up
| \  slide down
| h  hammer-on
| p  pull-off
| ~  vibrato
| +  harmonic
| x  Mute note
===============================================================================

            
            
Suggest correction
Creating personal tab
Creating personal tab
You can edit any tab online and save it as your Personal.

You can edit, replace or remove any tab part or add personal notes – all changes will be seen only by you.

Personal tabs can be accessed anytime from any device, even offline.
Learn more »
Give kudos to tab author, rate the tab!
1 2 3 4 5
comments
print report bad tab
3 comments total.
0 reply
dylank69 521 Jan 26, 2009 08:03 PM

just isnt right

0 reply
FunkyBlake 72 Apr 18, 2009 12:00 PM

this is wrong. i've got a tab up of this thats guaranteed 100% correct, got it from a magazine that the bassist of kajagoogoo posted the tabs in.

0 reply
BOC15 10 Apr 23, 2009 05:01 PM

It's not that bad of a tab, i dont know what they are talking about

Although, at the beginning, instead of the 70 50 7 57 on the D string... It should be 12h0 10h0 12 19h12 on the A string

guest
You may want to rate the tab now too:
select rating
Wanna post a correction for this tab? Suggest correction