Oops, an error
Loading. Please wait.

Too Shy Bass Tab

version 2
version 2

Whole song

Interactive

14,343 views 60 this week
2 commentsread comments
1 2 3 4 5
excellent!
x 6
add to favorites
launch autoscroll
font size
0
reset
guitar tuner
Tab Pro tools
  • play this tab
  • loop segment
  • change instrument
  • show fretboard
  • metronome
Autoscroll
slow
fast
+/-
esc
set tempo
stop
Contributor
___  __   __      __                                         __   __   __   __   __   __  
 |  /  \ /  \    /__` |__| \ /    __    |__/  /\     |  /\  / _` /  \ /  \ / _` /  \ /  \ 
 |  \__/ \__/    .__/ |  |  |           |  \ /~~\ \__/ /~~\ \__> \__/ \__/ \__> \__/ \__/ 
  
Alright the other tab for this song is incorrect so I'm postin this one. I DID NOT make
 this tab and DO NOT take credit for it. This tab is 100% correct, the bassist of 
Kajagoogoo, Nick Beggs, is the one one provided this tab to a magazine. I got the tabs
 for this out of Bass Guitar Magazine. This is in standard tuning, and is in common time.
       ___  __   __  
| |\ |  |  |__) /  \ 
| | \|  |  |  \ \__/
 
G-----|-----------------------------|------------17--15---| x2
D-----|-----------------------------|---------------------|  (except for the 
A--0--|-(12)0(10)0(12)0(10)(12)---0-|--70507-----15--13---|    pickup note
E-----|-----------------------------|---------------------|     of course)
  P                                                             
  i                            
  c
  k
  u
  p
   note

      ___  __   __   ___ 
\  / |__  |__) /__` |__  
 \/  |___ |  \ .__/ |___ 

G--------------------------|----------------------------|
D--------------------------|---------------------3-3----|
A--0--------0-------3---4--|--5--------5-------5-----5--|
E-----3--------------------|------3---------------------|

G-----------------9----9---|
D-------------------9------|
A--9--9/12--9-9------------|
E--------------------------|
_____________________               ___________________ 
| First Ending                      | Second Ending  
G-------------------------------|   G---------------------------|
D--7--7-----8--7--7----15--14---|   D--7--7----8--7--7----7-----|
A-------------------------------|   A------------------------7--|
E-------------------------------|   E---------------------------|

 __        __   __        __  
/  ` |__| /  \ |__) |  | /__` 
\__, |  | \__/ |  \ \__/ .__/ 

G----7-----------12-12--|-----------------------10--|----7----------12-12--|
D-----------------------|-------------11--10--------|----------------------|
A--5--------------------|-------13-13-------12------|--5-------------------|
E------3-5-1-3----------|--0/13---------------------|------3-5-1-3---------|
_____________________________ __________________             
| First Ending                | Second Ending
G-----------------------10--| G-----------------|
D-------------11--10--------| D-----------------|
A-------13-13-------12------| A---------13-13---|
E--0/13---------------------| E--12/13----------|
 
 __   __     __   __   ___ 
|__) |__) | |  \ / _` |__  
|__) |  \ | |__/ \__> |___ 
                           
G---------------------|------------------5----|---------------------|
D---------------------|-----------------------|---------------------|
A------0--3---5--5-7--|-----0--3-----3-0---3--|------0--3---5--5-7--|
E--3------------------|--3--------3-----------|--3------------------|

G-----------------5-----|
D-----------------------|
A------0--3---3-0---3-3-|
E--3--------------------|

         __   __        ___     ___    __       ___ 
 |\/| | |  \ |  \ |    |__     |__  | / _` |__|  |  
 |  | | |__/ |__/ |___ |___    |___ | \__> |  |  |  

G-----------------------------|-----------------|
D--7-7--7---7--7-9--7--5------|-----------------| x8
A------------------------9-7--|--7-5--5-7--5-7--|
E-----------------------------|-----------------|

comments
print report bad tab
2 comments total.
0 reply
MXWest wrote on January 21 2012, 08:59 pm

The chorus, right in the beginning part:


G----7-----------12-12--|
D-----------------------|
A--5--------------------|
E------3-5-1-3----------|

The G-A-F-G (3-5-1-3 on the E string) is wrong. It should actually be one octave HIGHER than shown in the tab. Sorry I dunno how to really fix that. And yes, it's wrong in the published version ('Beggs on Bass') and hence here.

0 reply
musiktrooper wrote on March 2 2012, 06:00 am

i'm sure that is ok, if you watch and listen to the video, you can see that is not impossible to play in this way... but is tricky, of course. Good transcription, anyway ;)

I want to post or [tab]
guest
You may want to rate the tab now too:
select rating
Please do not post tabs as comments. Select "correction" instead!