Oops, an error
Loading. Please wait.

Skimming The Fractured Surface To A Place Of Endless Light Tab

10 views 6 this week
no commentswrite comment
1 2 3 4 5
3 more votes to show rating
add to favorites
launch autoscroll
font size
0
reset
how to read this tab
guitar tuner
Autoscroll
slow
fast
+/-
esc
set tempo
stop
Help us to improve Ultimate-Guitar.com Take our survey!
×
Author
Difficulty
Tuning
advanced
C G C F A D
About this tab version
Exactly as played on album Glow by Kaki King. Was this info helpful? Yes No
Tuning: B F# c# f# a# d# (half step down from drop C). 

This tab is not "in time", so listen to the recording 
for the rhythm of the notes. 

There's that beat almost throughout which Kaki does by hitting 
the body of the guitar with the palm of her right hand. 

In the section labeled [C] the chords are right but its hard
to tell what notes are plucked in what order. I did my best but 
adjust however you'd like.


[A]

d#|0---------------------------------------------------------------------------------------------|
a#|-0--------------------------------------------------------------------------0-----------------|
f#|--0-----------------------------------------------------------------------0-------0-----0-----| [repeat]
c#|---0-------------------------------------------------------------------4-------7----7---------|
F#|----0-------------------h2-p0---------------h2-p0--------------h2----4---------7------7-------|
B |-----0----------------h2---p0-------------h2---p0------------h2---s4-----------7----------0---|

[B]

e|---------7------------10p7---7-----------------------------12-12-0-------------------------------|
B|-------8---8--------------8---8---------------------8---10-12-12--0---------------0--------------|
G|---7h9------9--------------9-------7h9p0------------9---11---------0------------0------0-----0---| [repeat]
D|7h9-----------------------------7s9-------------------------------------------4-----7----7-------|
A|----------------h2-p0------------------------h2-p0--------------------h2----4-------7------7-----|
E|--------------h2---p0----------------------h2---p0------------------h2---s4---------7----------0-|

[C]

e|--------------------------------------|
B|----0---------------------------------|
G|------------------0-------------------| [repeat]
D|-s9---9---9--s7-7---7---s5-----5-7-5--|
A|-s9-----9----s7-------7-s5---5--------|
E|-s9----------s7---------s5-5----------|

[A2]

e|0--------------------------*7------------------------*5------------------------------------|
B|-0-------------------------*7------------------------*5------------------0-----------------|
G|--0--------------------------------------------------------------------0-------0-----0-----|
D|---0-----------------------------------------------------------------4------7----7---------|
A|----0---------------h2-p0------------------h2-p0-------------h2----4--------7------7-------|
E|-----0------------h2---p0----------------h2---p0-----------h2---s4----------7----------0---|

[B2]

e|----------7------------10p7-7--7----------------------------0-------------------------------|
B|--------8---8--------------8--8----8------------10-12-10-8---0---------------0--------------|
G|----7h9------9---------------9--7h9-9-----------11-12-11-9----0------------0------0-----0---| 
D|-7h9---------------------------------------------------------------------4-----7----7-------|
A|-----------------h2-p0--------------------h2-p0------------------h2----4-------7------7-----|
E|---------------h2---p0------------------h2---p0----------------h2---s4---------7----------0-|


e|--------------------------------------------------0----------------------------------------|
B|---------------------------------------------------0---------------------0-----------------|
G|----------------------------------------9-9-11-12---0------------------0-----0-----0-------|
D|---9-9-7-9----------9-9-7-12s9----------7-7-9--12----0---------------4-----7---7-----------|
A|---9-9-7-9---h2-p0--9-9-7-12s9---h2-p0--------------------h2-p0----4-------7-----7---------|
E|-0---------h2---p0-------------h2---p0------------------h2---p0-s4---------7---------0-----|



************************************

| h  Hammer-on
| p  Pull-off
| *  Natural harmonic 

************************************
Suggest correction
Give kudos to tab author, rate the tab!
1 2 3 4 5
comments
print report bad tab
guest
You may want to rate the tab now too:
select rating
Wanna post a correction for this tab? Suggest correction