Oops, an error
Loading. Please wait.

Galapagos tab

1,006 views 15 this week
no commentswrite comment
1 2 3 4 5
x 3
add to favorites
×
Save as Personal and add changes to this tab that will be seen only by you. Learn more ›
×
You can save this tab as Personal to edit and correct it or add notes. All changes will be seen only by you. Learn more »
launch autoscroll
font size
0
reset
how to read this tab
guitar tuner
edit
Autoscroll
slow
fast
+/-
esc
set tempo
stop
Author
[Intro]

e|---12-13-12-10-----------------------------------------| 
B|---------------13-10-----------------------------------| 
G|--------------------12-10-9-10/12----10-9-10-9---------| 
D|-------------------------------------------------10----| 
A|-------------------------------------------------------| 
E|-------------------------------------------------------| 

e|---12-13-12-10-----------------------------------------| 
B|---------------13-9------------------------------------| 
G|--------------------12-10-9-10/12----10-9-10-9----10-12| 
D|-------------------------------------------------------| 
A|-------------------------------------------------------| 
E|-------------------------------------------------------| 


[Verse 1]

Am       C      F       Em
And we’re walking, car parked in the shade of the trees
Am       C      F       Em
Tried to climb one, countryside activities
Am       C      F       Em
And we’re walking, a woman and her dog look away
Am       C      F       Em
Nod at the locals, knowing that we’re not going to stay


[Instrumental]

(Same as intro)

e|---12-13-12-10-----------------------------------------| 
B|---------------13-10-----------------------------------| 
G|--------------------12-10-9-10/12----10-9-10-9---------| 
D|-------------------------------------------------10----| 
A|-------------------------------------------------------| 
E|-------------------------------------------------------| 

e|---12-13-12-10-----------------------------------------| 
B|---------------13-9------------------------------------| 
G|--------------------12-10-9-10/12----10-9-10-9----10-12| 
D|-------------------------------------------------------| 
A|-------------------------------------------------------| 
E|-------------------------------------------------------| 


[Verse 2]

Am       C      F       Em
And we’re walking, talk about The Galapagos
Am       C      F       Em
Natural science, erosion, eruption and us
Am       C      F       Em
And we’re walking, palms are sweating, our hands let go
Am       C      F       Em
Keep on talking, self-conscious but it’s not gonna show


(Second Guitar Plays this once before and during solo)

e|-------------------------------------------------------------------------------| 
B|-------------------------------------------------------------------------------| 
G|-------------------------------------------------------------------------------| 
D|7-7-7-7-7-7-7-7-9-9-9-9-9-9-9-9-10-10-10-10-10-10-10-10-12-12-12-12-12-12-12-12| 
A|-------------------------------------------------------------------------------| 
E|-------------------------------------------------------------------------------| 


[Solo]

e|-------12-10---12------10------------------------------| 
B|----10------------13------12---13-10------10-----------| 
G|---------------------------------------12--------------| 
D|-------------------------------------------------------| 
A|-------------------------------------------------------| 
E|-------------------------------------------------------| 

e|-------12-10---12------10------------------------------| 
B|----10------------13------12---13-10------10-----------| 
G|---------------------------------------12-------12-12--| 
D|-------------------------------------------------------| 
A|-------------------------------------------------------| 
E|-------------------------------------------------------| 

e|-------12-10---12--------------------------------------| 
B|----10------------13---10-12-----13----10--------------| 
G|------------------------------------12-----------------| 
D|-------------------------------------------------------| 
A|-------------------------------------------------------| 
E|-------------------------------------------------------| 


[Verse 3]

Am       C      F       Em
Wade in the water on your own, 
Am       C      F       Em
don’t wanna go home
Am       C      F       Em
Leave clothes and shoes on the ground, 
Am       C      F       Em
don’t make a sound
Am       C      F       Em
don’t make a sound
Am       C      F       Em
don’t make a sound


[Instrumental]

(Same as intro)

e|---12-13-12-10-----------------------------------------| 
B|---------------13-10-----------------------------------| 
G|--------------------12-10-9-10/12----10-9-10-9---------| 
D|-------------------------------------------------10----| 
A|-------------------------------------------------------| 
E|-------------------------------------------------------| 
                                                             x2
e|---12-13-12-10-----------------------------------------| 
B|---------------13-9------------------------------------| 
G|--------------------12-10-9-10/12----10-9-10-9----10-12| 
D|-------------------------------------------------------| 
A|-------------------------------------------------------| 
E|-------------------------------------------------------| 

            
            
Suggest correction
Creating personal tab
Creating personal tab
You can edit any tab online and save it as your Personal.

You can edit, replace or remove any tab part or add personal notes – all changes will be seen only by you.

Personal tabs can be accessed anytime from any device, even offline.
Learn more »
Give kudos to tab author, rate the tab!
1 2 3 4 5
comments
print report bad tab
guest
You may want to rate the tab now too:
select rating
Wanna post a correction for this tab? Suggest correction