Oops, an error
Loading. Please wait.

Is She tab

220 views 1 this week
no commentswrite comment
1 2 3 4 5
3 more votes to show rating
add to favorites
×
Save as Personal and add changes to this tab that will be seen only by you. Learn more ›
×
You can save this tab as Personal to edit and correct it or add notes. All changes will be seen only by you. Learn more »
launch autoscroll
font size
0
reset
how to read this tab
guitar tuner
edit
Autoscroll
slow
fast
+/-
esc
set tempo
stop
Difficulty
About this tab version
This is a more complete version of the last tab, with bass and piano parts. Was this info helpful? Yes No
Bass and Guitar tab. I tab part of the piano but a piano player probably can figure it out, so now you can
play an acoustic version. Both instruments use Standard Tuning.

The Guitar in the intro is repeated through the song. 

[Intro]

(Only Piano first round)

Riff 1 : Bm D F#m E Bm

Then play

G|--------------------|
D|--------------------|
A|------------5-------|
E|------7--7------7---|

Twice, and in the second while strumming one dead string. And go to Verse with Riff 1:

[Verse]

(Strum same chords as in the intro)

RIFF 1
             Bm                                  D       
You can hear music and conversation from apartment no.5,

                repeat                   Repeat

e|------7--7--X----7--7--X---|------5--5--X----5--5--X---|
b|------7--7--X----7--7--X---|------7--7--X----7--7--X---|
g|------7--7--X----7--7--X---|------7--7--X----7--7--X---|
d|------9--9--X----9--9--X---|------7--7--X----7--7--X---|
a|------X--X--X----X--X--X---|------X--X--X----X--X--X---|
E|------X--X--X----X--X--X---|------X--X--X----X--X--X---|

               

Play each part twice
G|--------------------|----------------|-----------------|----------------|
D|--------------------|----------------|-----------7-----|----------7-----|
A|------------5-------|----------5-----|----5---5-----5--|---5---5-----5--|
E|------7--7------7---|-----7--7----7--|-----------------|----------------|




F#m                  E                Bm
I'm with all of my friends, anticipation, anticipation
                                
                                                                  Repeat
e|------9---9---X----9---9---X---|------7--7--X----7--7--X---|----7--7--X----7--7--X---|
b|------10--10--X----10--10--X---|------9--9--X----9--9--X---|----7--7--X----7--7--X---|
g|------11--11--X----11--11--X---|------9--9--X----9--9--X---|----7--7--X----7--7--X---|
d|------11--11--X----11--11--X---|------9--9--X----9--9--X---|----9--9--X----9--9--X---|
a|------X---X---X----X---X---X---|------X--X--X----X--X--X---|----X--X--X----X--X--X---|
E|------X---X---X----X---X---X---|------X--X--X----X--X--X---|----X--X--X----X--X--X---|


Play each part twice
G|--------------------|----------------|-----------------|----------------|
D|------------11------|-----------9----|-----------------|----------------|
A|------9--9-----9----|-----7--7----7--|-----------7-----|---------7------|
E|--------------------|----------------|----5---5-----5--|---5---5-----5--|



       Bm                                  D       
It was the first thing I saw when I came,

             repeat                    Repeat
e|------7--7--X----7--7--X---|------5--5--X----5--5--X---|
b|------7--7--X----7--7--X---|------7--7--X----7--7--X---|
g|------7--7--X----7--7--X---|------7--7--X----7--7--X---|
d|------9--9--X----9--9--X---|------7--7--X----7--7--X---|
a|------X--X--X----X--X--X---|------X--X--X----X--X--X---|
E|------X--X--X----X--X--X---|------X--X--X----X--X--X---|


Play each part twice
G|--------------------|----------------|-----------------|----------------|
D|--------------------|----------------|-----------7-----|----------7-----|
A|------------5-------|----------5-----|----5---5-----5--|---5---5-----5--|
E|------7--7------7---|-----7--7----7--|-----------------|----------------|


                                F#m   E                  Bm
and I don't need to know a name,      there's only one question...

             
                                                                   Repeat
e|------9---9---X----9---9---X---|------7--7--X----7--7--X---|----7--7--X----7--7--X---||
b|------10--10--X----10--10--X---|------9--9--X----9--9--X---|----7--7--X----7--7--X---||
g|------11--11--X----11--11--X---|------9--9--X----9--9--X---|----7--7--X----7--7--X---||
d|------11--11--X----11--11--X---|------9--9--X----9--9--X---|----9--9--X----9--9--X---||
a|------X---X---X----X---X---X---|------X--X--X----X--X--X---|----X--X--X----X--X--X---||
E|------X---X---X----X---X---X---|------X--X--X----X--X--X---|----X--X--X----X--X--X---||



Play each part twice
G|--------------------|----------------|-----------------|---------------|
D|------------11------|-----------9----|-----------------|---------------|
A|------9--9-----9----|-----7--7----7--|-----------7-----|---------7//---|
E|--------------------|----------------|----5---5-----5--|---5---5-------|





[Chorus]

(Guitar just strums the chords once with piano)

Riff 2

           Repeat 
e|--------------------------|-----------||
b|---------3---------3------|-------3---||
g|-----2-----4----2-----4---|---2-------||
d|--------------------------|-----------||
a|--------------------------|-----------||
E|--------------------------|-----------||



G      A         Bm
Is she, Is she old?

G|-------------------------------------------------------------------|
D|-------------------------------------------------------------------|
A|-------------2-------------4--------------5---------7---5----------|
E|------3--3------3----5--5-----5---7---7------7--------------7---5--|


G        A         Bm
Is she old enough for me?

G|-----------------------------------------------------------------------|
D|-----------------------------------------------------------------------|
A|-------------2-------------4--------------5-------------5 //7---5------|
E|------3--3------3----5--5-----5---7---7------7------7------------------|

G      A         Bm
Is she, Is she old?


G|-------------------------------------------------------------------|
D|-------------------------------------------------------------------|
A|-------------2-------------4--------------5---------7---5----------|
E|------3--3------3----5--5-----5---7---7------7--------------7---5--|



G        A         Bm
Is she old enough for me?


G|-------------------------------------------------------------------|
D|-------------------------------------------------------------------|
A|-------------2-------------4--------------5-------------5----------|
E|------3--3------3----5--5-----5---7---7------7---7---7------7------|






[Verse]

 Bm                              D
She kicks off her shoes, and offers me her hand,
 

Play each part twice
G|--------------------|----------------|-----------------|----------------|
D|--------------------|----------------|-----------7-----|----------7-----|
A|------------5-------|----------5-----|----5---5-----5--|---5---5-----5--|
E|------7--7------7---|-----7--7----7--|-----------------|----------------|



Fm                    E                Bm
it's time to end this, anticipation, anticipation

Play each part twice                                        Just once
G|--------------------|----------------|-----------------|----------------------------|
D|------------11------|----------9-0---|-----------------|----------------------------|
A|------9--9-----9----|-----7--7----7--|-----------7-----|---------7---------2----2---|
E|--------------------|----------------|----5---5-----5--|---5---5-----5--0-----2-----|



Bm                                 D
So I move her to the sound, when the music slows right down,

Play each part twice
G|--------------------|----------------|-----------------|----------------|
D|--------------------|----------------|-----------7-----|----------7-----|
A|------------5-------|----------5-----|----5---5-----5--|---5---5-----5--|
E|------7--7------7---|-----7--7----7--|-----------------|----------------|



Fm                      E                 Bm
lips almost meet face, but there's still one question in that tiny space...


Play each part twice
G|--------------------|----------------|-----------------|---------------|
D|------------11------|-----------9----|-----------------|---------------|
A|------9--9-----9----|-----7--7----7--|-----------7-----|---------7//---|
E|--------------------|----------------|----5---5-----5--|---5---5-------|



[Chorus]

(Just as before)

[Interlude]

Play Verse chords  

Sketch of solo:  

First round goes an arpegio in the same chords, then play



e|--7-------|-------7--7---9---10---7-----------|------7---7---9--10----7-------7-------|
b|----7-----|----7--------------------10---7----|---7-----------------------7------(7)--|
g|------7---|-----------------------------------|---------------------------------------|
d|--------9-|-----------------------------------|---------------------------------------|
a|----------|-----------------------------------|---------------------------------------|
E|----------|-----------------------------------|---------------------------------------|

e|--9-----10---7---|----7-----9--7--|
b|----10-----------|-------9--------|
g|-----------------|----------------|
d|-----------------|----------------|
a|-----------------|----------------|
E|-----------------|----------------|

e|--7-----7--9--10-------7---9--10----------19---||
b|----7--------------10---------------12---------||
g|------------------------------------- ---------||
a|-----------------------------------------------||
E|-----------------------------------------------||

[Verse]

(Strum chords only once)
(Bass is more slow on this one)

Bm                                   D
You can hear music and conversation from apartment number 5,

Fm                         E           Bm
I'm with all of my friends, anticipation, anticipation


e|--7-------7--|
b|----7---7----|
g|------7------|
d|-------------|
a|-------------|
E|-------------|

(Arpegio  chords)


Bm                                  D
So I move her to the sound, and the music slows right down,

Fm                          E            Bm
lips close to her face, but there's still one question in that tiny space...



[Chorus]
(Just as before)
2MARGRETE GRANUM



************************************

| /    Slide up
| (n)  Ghost note

************************************

            
            
Suggest correction
Creating personal tab
Creating personal tab
You can edit any tab online and save it as your Personal.

You can edit, replace or remove any tab part or add personal notes – all changes will be seen only by you.

Personal tabs can be accessed anytime from any device, even offline.
Learn more »
Give kudos to tab author, rate the tab!
1 2 3 4 5
comments
print report bad tab
guest
Wanna post a correction for this tab? Suggest correction